Thats The Touch I Like

Document Sample
Thats The Touch I Like Powered By Docstoc
					That's The Touch I Like
1. Red ribbons in your hair              I'd like to come and see you sometime,
I'm kind of glad that you put it there   Baby you look fine and pretty
That's the touch I like                  And I'd be on my very best behavior
That's the touch I like                  Hold the doors and coats for you
Oh, that's the touch I like              And tryin’ to be witty
Oh, that's the touch I like              Losing all my cool to win your favor

2. The air of flowers when you're near   3. You got no words to waste
Your pretty eyes so bright and clear     Just sweet old-fashioned taste
That's the touch I like                  That's the touch I like
That's the touch I like                  That's the touch I like
Whoah that's the touch I like            Oh, that's the touch I like
That's The Touch I Like
Jesse Winchester
Recorded by Jerry Garcia for his second solo album ("Compliments Of ...") but not released on the original album. Subsequently played
by Garcia with Merl Saunders, including in Legion Of Mary.

Intro
G
|-------|------------|----------|------------------|---------------|---|
|-------|------------|----------|---6b8----3-----3-|---------------|---|
|-------|--5b7-----7r|5-5-4-----|--------5---5b7---|-5-5-3h4-------|---|
|---3-4h|5-----------|------5---|------------------|-----------3-4h|-5-|
|-5-----|------------|----------|------------------|---------5-----|---|
|-------|------------|----------|------------------|---------------|---|

G                            |---------|       I'm kind of glad that you |---------|---|
                             |---------|                                 |---------|---|
(F)(b7)Red ribbon in your    |---------|
                                               put it there              |---------|---|
hair                         |---3-4h5-|                                  |---5-----|---|
                             |-5-------|                                  |-----5-4p|-3-|
                             |---------|                                  |---------|---|

C7                           |-like------------|----|         G
                             |-------------5---|----|                                           |---------------|------------|
That's the touch I like      |-------------5-3/|-4--|
                                                              That's the touch I like           |-------3-------|------------|
                             |-------------5-2/|-3--|         D7 C7                     G D7    |---5b7---5-5-3h|4-----------|
                             |-3-----2/3-3-----|----|         Oh, that's the touch I like       |---------------|--5---------|
                             |---3-6-----------|-G--|                                           |---------------|----5-5-----|
                                                                                                |---------------|------------|

2. The air of flowers when you're near
Your pretty eyes so bright and clear
That's the touch I like
That's the touch I like
Whoah that's the touch I like    |-------7---------|-------------|-----|
                                |---------------3-|-------------|---1-|
                                |---5/7-7---5b7---|-5-5-4-------|---3-|
                                |-----------------|-------5-----|---2-|
                                |-----------------|---------1-2/|-3---|
                                |-----------------|-------------|-----|
Bridge
C
I'd like to come and see you sometime
G
Baby, you're looking pretty
D7                            G                |---------------|-----------|
                                               |---------3-----|-----------|
And I'd be on my very best behavior            |-----5b7---7-5-|-7-5-------|
                                               |---------------|-----7-----|
                                               |---------------|-----------|
                                               |-G-------------|-----------|

C7
Holding doors and coats for you
G
And trying to be witty
D7
                              |---------------|-E----------------|-A-|
Losing all my cool to win     |---------------|---5-----5--------|---|
      G      E                |---------------|---7-----7--------|---|
your favor                    |-5-5-4h5-4p3---|---6-----6----5-6h|-7-|
                                 |-------------6/|-7-----7---7------|---|
                                 |---------------|------------------|---|


   A
                                     |-----|                                   |---------------|
3. You got no words to waste         |-----|
                                                     D7                  A     |---------------|
A                                    |-7\5-|         that's the touch I like   |-7b9-9r7-5h6---|
Just sweet old-fashioned taste       |-6\4-|                                   |-------------7-|
D                                    |-----|                                   |---------------|
That's the touch I like              |-----|                                   |---------------|
A
That's the touch I like
E7
Oh,
Solo over A verse x2
|-----------------------|-------------------|--------------5-------|---------------|---------------|-----------|
|------13b----13b-15-13-|-15b17-13-15-13----|------------5---8p5---|-7p5-----------|---------------|-----------|
|---14-----14-----------|----------------14-|-14\\---7b9---------5-|-----5-------5-|-6b7---5-5-----|-----5-5---|
|-----------------------|-------------------|----------------------|-------7-5h7---|-------------7-|-----------|
|-----------------------|-------------------|----------------------|---------------|---------------|-----------|
|-A---------------------|-------------------|----------------------|---------------|-D-------------|-----------|

|---------------|-------------|-----------------|----------------|-A---------------|--------12---------|
|---------------|-------------|-----------------|----------------|-----------------|-----------13b14---|
|-ph7b9---5-5---|-------5-5---|-7b9-9-9-9-9r7---|-7-5b-----------|---2-----------2-|-----14------------|
|---------------|-7---7-------|-----------------|------7-5-------|-------2-5-2-5---|-------------------|
|---------------|-------------|---------------9-|----------7/5-3h|-4---------------|-------------------|
|-A-------------|-------------|-E7--------------|-D--------------|-----------------|-------------------|

Around again…
|---------------------------------------|----------------------------------------|
|------13----13-13----13-13----13-13----|-13-13----13-15-15b17r15-13-15b17-13----|
|---14----14-------14-------14-------14-|-------14----------------------------14-|
|---------------------------------------|----------------------------------------|
|---------------------------------------|----------------------------------------|
|---------------------------------------|----------------------------------------|

|-----------------|--------------17----------------------------|------------------|
|-13---------13\\-|--------17-20-------20b22-20-17-------------|------------------|
|------14-12------|--------------------------------19b21r19-17-|-19-17b19r17------|
|-----------------|--------------------------------------------|-------------19---|
|-----------------|--------------------------------------------|------------------|
|-----------------|--------------------------------------------|------------------|

|-11/12-15-15-15----------------11/12-15-15-15-------------------------------------|
|----------------15b17r15p14p13----------------15-14b15-13----15b17-17r15-15-13b14-|
|----------------------------------------------------------15----------------------|
|----------------------------------------------------------------------------------|
|----------------------------------------------------------------------------------|
|----------------------------------------------------------------------------------|
Bridge 2
D
Got to come and see you sometime
A
Baby, you look pretty

E7                           A        |-------------------------|
                                      |---------7---------------|
And I'd be on my very best behavior   |-----7b9---9-7-9-7-------|
                                      |-------------------9-----|
                                      |-------------------------|
                                      |-------------------------|

D7
Holding doors and coats for you
A
And trying to be witty
E7                              A    E7E7 - E7E7 - E7E7
Losing all my cool to win your favor

4. The red ribbon in your hair
I'm kind of glad that you put it there
That's the touch I like
That's the touch I like
Oh, that's the touch I like     |-----------------------------|
                              |---4/5-5-5--4/5-5-5--4/5-5-5-|
                              |---5/6-6-6--5/6-6-6--5/6-6-6-|
                              |---4/5-5-5--4/5-5-5--4/5-5-5-|
                              |-----------------------------|
                              |-----------------------------|
Oh, that's the touch I like
|---------------------------|------|
|---------------------------|------|
|---7b9-9-9-9-9r7-7-6-------|------|
|-------------------------7-|-(7)--|
|---------------------7-5---|------|
|---------------------------|------|
Later versions (such as this one from May 1975) included more verses:

Red ribbon in your hair                        You ain't got no words to waste
I'm kind of glad that you put it there         Just sweet old-fashioned taste
That's the touch I like                        That's the touch I like
That's the touch I like                        That's the touch I like
Oh, that's the touch I like                    Oh, that's the touch I like
You ain't got no words to waste                Yellow flowers 'round your hair
Just sweet old-fashioned taste                 Your pretty eyes so bright and clear
That's the touch I like                        That's the touch I like
That's the touch I like                        That's the touch I like
Oh, that's the touch I like                    Oh, that's the touch I like
I'd like to come and see you sometime, baby    Your eyes so clear and bright
You look fine and pretty                       I like seein' them every night
And I'd be on my very best behavior            That's the touch I like
Hold the doors and coats for you               That's the touch I like
Try to be witty                                Oh, that's the touch I like
Losing all my cool to win you favor
Red flowers in your hair
I'm kinda glad that you put it there
That's the touch I like
That's the touch I like
Oh, that's the touch I like

				
DOCUMENT INFO
Shared By:
Categories:
Tags:
Stats:
views:7
posted:8/2/2011
language:English
pages:6