Docstoc

How Great Is Our God _Bass Tab_

Document Sample
How Great Is Our God _Bass Tab_ Powered By Docstoc
					                                    Words and Music by: Chris Tomlin, Jesse Reeves, Ed Cash
                                             Tabbed and Compiled by: Ben Charity
                                               (www.thebenjaminresource.com)


How Great Is Our God
Verse 1:
       C                       Am7
G|--------------------------------------------------------
D|--------------------------------------------------------
A|-----3------------------0-------------------------------
E|--------------------------------------------------------
The splendor of the King, clothed in majesty

                     F2
G|--------------------------------------------------------
D|--------------------------------------------------------
A|--------------------------------------------------------
E|---------------1----------------------------------------
Let all the earth rejoice, let all the earth rejoice

      C                            Am7
G|--------------------------------------------------------
D|--------------------------------------------------------
A|---3-----------------------0----------------------------
E|--------------------------------------------------------
He wraps Himself in light, and darkness tries to hide

                   F2
G|--------------------------------------------------------
D|--------------------------------------------------------
A|--------------------------------------------------------
E|--------------1-----------------------------------------
Trembles at His voice, trembles at His voice

Chorus:
      C
G|--------------------------------------------------------
D|--------------------------------------------------------
A|-----3--------------3--------2--------------------------
E|--------------------------------------------------------
How great is our God. Sing with me
      Am7
G|--------------------------------------------------------
D|--------------------------------------------------------
A|-----0--------------------------------------------------
E|--------------------------------------------------------
How great is our God.

                        Fmaj7     Gsus       C
G|--------------------------------------------------------
D|--------------------------------------------------------
A|---------------------------------------3----------------
E|-------------------1---------3--------------------------
And all will see how great, how great is our God


Verse 2:
    C                           Am7
G|--------------------------------------------------------
D|--------------------------------------------------------
A|---3----------------------0-----------------------------
E|--------------------------------------------------------
And age to age He stands, and time is in His hands

                  F2
G|--------------------------------------------------------
D|--------------------------------------------------------
A|--------------------------------------------------------
E|---------------1----------------------------------------
Beginning and the End, Beginning and the End

      C                         Am7
G|--------------------------------------------------------
D|--------------------------------------------------------
A|----3--------------------0------------------------------
E|--------------------------------------------------------
The God head, three in one, Father, Spirit, Son
                  F2
G|--------------------------------------------------------
D|--------------------------------------------------------
A|--------------------------------------------------------
E|---------------1----------------------------------------
The Lion and the Lamb, the Lion and the Lamb


Bridge:
            C
G|--------------------------------------------------------
D|--------------------------------------------------------
A|----------3--------------------3---2--------------------
E|--------------------------------------------------------
You’re the Name above all names

          Am7
G|--------------------------------------------------------
D|--------------------------------------------------------
A|-------0------------------------------------------------
E|-----------------------------3--------------------------
You are worthy of all praise

    Fmaj7                G           C
G|--------------------------------------------------------
D|--------------------------------------------------------
A|--------------------------------3-----------------------
E|---1-----------------3----------------------------------
My heart will sing how great, is our God

				
DOCUMENT INFO
Shared By:
Categories:
Stats:
views:41
posted:7/14/2011
language:English
pages:3