; korn twisted transistor
Documents
Resources
Learning Center
Upload
Plans & pricing Sign in
Sign Out
Your Federal Quarterly Tax Payments are due April 15th Get Help Now >>

korn twisted transistor

VIEWS: 53 PAGES: 4

  • pg 1
									korn - Twisted Transistor Acoustic


Title: 'Twisted Transistor (acoustic)'
Album: unreleased
Transcribed by: kickthebass aka dogg
Email: kickthebass[at]mail.ru

i've tabbed it based on live acoustic performed in kroq radio.
i know, it is korn in standard tuning and on acoustic guitar.
i am not sure on it is 100% correct. but it is sounds like on
performing on kroq radio. here is the acoustic version:


intro:
e|--------------------------|
B|--------------------------|
G|-x-x-x-6r--x-x-6~--x-x-6b-| (x2)
D|-x-x-x-x---x-x-x---x-x-x--|
A|-x-x-x-4r--x-x-4~--x-x-4b-|
E|--------------------------|


verse (both 2 guitars):
e|--------------------------|
B|--------------------------|
G|-x-x-x-6r--x-x-6~--x-x-6b-| (x4)
D|-x-x-x-x---x-x-x---x-x-x--|
A|-x-x-x-4r--x-x-4~--x-x-4b-|
E|--------------------------|


interlude:
e|---------------------------------------|
B|---------------------------------------|
G|---------------------------------------| (x2)
D|-x-10-10-10-x-11-11-11-x-9-9-9-x-9-9-9-|
A|-x-10-10-10-x-11-11-11-x-9-9-9-x-9-9-9-|
E|-x--8--8--8-x--9--9--9-x-7-7-7-x-7-7-7-|


pre-chorus (both 2 guitars):
e|-------------|
B|-------------|
G|-x-x-x-5-6-7-| (x4)
D|-x-x-x-5-6-7-|
A|-x-x-x-3-4-5-|
E|-------------|


chorus (both 2 guitars):
e|--------------------------|
B|--------------------------|
G|-x-x-x-6r--x-x-6~--x-x-6b-| (x4)
D|-x-x-x--x--x-x-x---x-x--x-|
A|-x-x-x-4r--x-x-4~--x-x-4b-|
E|--------------------------|


korn - Twisted Transistor Acoustic                       1 of 4
verse 2 (both 2 guitars):
guitar 1
e|---------------------------|
B|---------------------------|
G|-x-x-x-6r--x-x-6~--6-x-6/7-|
D|-x-x-x--x--x-x-x~--x-x-x-x-|
A|-x-x-x-4r--x-x-4~--7-x-4/5-|
E|---------------------------|

guitar 2
e|--------------------------|
B|--------------------------|
G|-x-x-x-6b--x-x-6~--x-x-6b-|
D|-x-x-x--x--x-x-x~--x-x--x-|
A|-x-x-x-4b--x-x-4~--x-x-4b-|
E|--------------------------|


interlude (both 2 guitars):
e|---------------------------------------|
B|---------------------------------------|
G|---------------------------------------| (x2)
D|-x-10-10-10-x-11-11-11-x-9-9-9-x-9-9-9-|
A|-x-10-10-10-x-11-11-11-x-9-9-9-x-9-9-9-|
E|-x--8--8--8-x--9--9--9-x-7-7-7-x-7-7-7-|


pre-chorus (both 2 guitars):
e|-------------|
B|-------------|
G|-x-x-x-5-6-7-| (x4)
D|-x-x-x-5-6-7-|
A|-x-x-x-3-4-5-|
E|-------------

chorus (both 2 guitars):
guitar 1
e|---------------------------|
B|---------------------------|
G|-x-x-x-6r--x-x-6~--6-x-6/7-| (x4)
D|-x-x-x-x---x-x-x---x-x-x-x-|
A|-x-x-x-4r--x-x-4~--7-x-4/5-|
E|---------------------------|

guitar 2
e|--------------------------|
B|--------------------------|
G|-x-x-x-6r--x-x-6~--x-x-6b-| (x4)
D|-x-x-x--x--x-x-x---x-x--x-|
A|-x-x-x-4r--x-x-4~--x-x-4b-|
E|--------------------------|


pre-bridge (both 2 guitars):
guitar 1 and guitar 2:
e|----------------------------------|


korn - Twisted Transistor Acoustic                2 of 4
B|----------------------------------|
G|-x-x-x-5-5-5-5/4-4/3--x-3-x-4-x-5-| (x3)
D|-x-x-x-5-5-5-5/4-4/3--x-3-x-4-x-5-|
A|-x-x-x-3-3-3-3/2-2/1--x-1-x-2-x-3-|
E|----------------------------------|

guitar 1
e|----------------------------------|
B|----------------------------------|
G|-x-x-x-5-5-5-5/4-4/3--x-3-x-4-x-5-|
D|-x-x-x-5-5-5-5/4-4/3--x-3-x-4-x-5-|
A|-x-x-x-3-3-3-3/2-2/1--x-1-x-2-x-3-|
E|----------------------------------|

guitar 2
e|-------------------------------|
B|-------------------------------|
G|-x-x-x-5-5-5-5/4-4/3-----------|
D|-x-x-x-5-5-5-5/4-4/3--5-6-5-6b-|
A|-x-x-x-3-3-3-3/2-2/1-----------|
E|-------------------------------|

bridge (both 2 guitars):
rythm guitar 1
e|-------------------------|
B|-------------------------|
G|-------------------------|
D|-8--8-5--x-5-6-7-8-6-7-8-|
A|-8--8-5--x-5-6-7-8-6-7-6-|
E|-6--6-3--x-3-4-5-6-4-5-6-|

e|------------------------------------------|
B|------------------------------------------|
G|------------------------------------------|
D|-8--8-8--5-5-5-5-5-5-5-5--x-5-6-7-8-7-5-6-|
A|-8--8-8--5-5-5-5-5-5-5-5--x-5-6-7-8-7-5-6-|
E|-6--6-6--3-3-3-3-3-3-3-3--x-3-4-5-6-5-3-4-|

e|---------------------------------------------------|
B|---------------------------------------------------|
G|---------------------------------------------------|
D|-8-8--8--8-8--8-8--5-5--5--5-5--5-5--x-7-8-9-10-10-|
A|-8-8--8--8-8--6-6--5-5--5--5-5--5-5--x-7-8-9-10-10-|
E|-6-6--6--6-6--6-6--3-3--3--3-3--3-3--x-5-6-7--8--8-|


solo guitar
e|----17r-b15-13-11r-8r-6r-8r-----|
B|-11--------------------------11-|
G|--------------------------------| (x3)
D|--------------------------------|
A|--------------------------------|
E|--------------------------------|
                             <tp>


chorus (both 2 guitars):
guitar 1


korn - Twisted Transistor Acoustic                       3 of 4
e|---------------------------|
B|---------------------------|
G|-x-x-x-6r--x-x-6~--6-x-6/7-| (x4)
D|-x-x-x-x---x-x-x---x-x-x-x-|
A|-x-x-x-4r--x-x-4~--7-x-4/5-|
E|---------------------------|

guitar 2
e|--------------------------|
B|--------------------------|
G|-x-x-x-6r--x-x-6~--x-x-6b-| (x4)
D|-x-x-x--x--x-x-x---x-x--x-|
A|-x-x-x-4r--x-x-4~--x-x-4b-|
E|--------------------------|



   b - bend
   r - bend release
   ~ - vibrato
   / - slide up
   \ - slide down
   x - dead note
   <tp> - tremolo picking


korn = sux :)

thanx 2 hiv, trash, kashmir




korn - Twisted Transistor Acoustic    4 of 4

								
To top