Chord Sheet - DOC

Document Sample
Chord Sheet - DOC Powered By Docstoc
					MAJOR CHORDS IN OPEN POSITION
      A maj B maj* C maj D maj      E maj   F maj   G maj

E   ------0------2(x)----0------2------0------1------3-----
B   ------2------4-------1------3------0------1------0(3)--
G   ------2------4-------0------2------1------2------0-----
D   ------2------4-------2------0------2------3------0-----
A   ------0------2-------3------x------2------x------2-----
E   ------x------x-------x------x------0------x------3-----

MINOR CHORDS IN OPEN POSITION
       A min B min* C min* D min    E min   F min   G min*

E   ------0------2(x)----3------1------0------1------3-----
B   ------1------3-------4------3------0------1------3-----
G   ------2------4-------5------2------0------1------3-----
D   ------2------4-------5------0------2------3------5-----
A   ------0------2-------3------x------2------x------5-----
E   ------x------x-------x------x------0------x------3-----

MAJOR AND MINOR BAR CHORDS ON THE FIFTH AND SIXTH STRINGS
      G maj G min     C maj C min
E ------3------3--------3(x)---3(x)------------------
B ------3------3--------5------4---------------------
G ------4------3--------5------5---------------------
D ------5------5--------5------5---------------------
A ------5------5--------3------3---------------------
E ------3------3--------x------x---------------------

SEVENTH CHORDS ON THE SIXTH STRING
      G maj7 G7 (G dominant7) G min7 G min7b5
E ------x------x-(3)--------------3--------x---------
B ------3------3-(3)--------------3--------2---------
G ------4------4-(4)--------------3--------3---------
D ------4------3-(3)--------------3--------3---------
A ------x------x-(5)--------------x--------x---------
E ------3------3-(3)--------------3--------3---------




-------------------top of page 2---------------------

SEVENTH CHORDS ON THE FIFTH STRING
     C maj7 C7 (C dominant7) C min7 C min7b5
E ------x-------x--(x)-------------x--------x--------
B ------5-------5--(1)-------------4--------4--------
G ------4-------3--(3)-------------3--------3--------
D ------5-------5--(2)-------------5--------4--------
A ------3-------3--(3)-------------3--------3--------
E ------x-------x--(x)-------------x--------x--------


SEVENTH CHORDS IN OPEN POSITION
          A7     B7*    C7    D7    E7    F7*      G7
E   ------0------2------0-----2-----0-----1-(x)----1-----
B   ------2------0------1-----1-----0-----1-(1)----0-----
G   ------0------2------3-----2-----1-----2-(2)----0-----
D   ------2------1------2-----0-----0-----1-(1)----0-----
A   ------0------2------3-----x-----2-----3-(x)----2-----
E   ------x------x------x-----x-----0-----1-(1)----3-----

				
DOCUMENT INFO
Shared By:
Categories:
Stats:
views:19
posted:6/9/2010
language:English
pages:2