Docstoc

I Will Follow You Into the Dark Tab by Death Cab For Cutie

Document Sample
I Will Follow You Into the Dark Tab by Death Cab For Cutie Powered By Docstoc
					Artist: Death Cab For Cutie Song: I Will Follow You Into The Dark I Will Follow You Into the Dark Guitar (Capo 5) E||------------------------------|-------------------------------| B||-------1-------------1--------|-------1--------------1------1-| G||----------2---2---------0---0-|----------2---2-----0-------0--| D||-----2------2------2------2---|------------3-----2-------0----| A||--0-------------3-------------|-----3----------3-------2------| E||------------------------------|--1----------------------------|

------------------------------|------------------------------| -------1-------------1--------|-------3-------------3--------| ----------2---2---------0---0-|----------0-------------0-----| -----2------2------2------2---|------------0-------------0---| --0-------------3-------------|-----2--------2----2--------2-| ------------------------------|--3-------------3-------------|

------------------------------|--------------------------------| -------1-------------1--------|----------------------1-------1-| ----------2---2---------0---0-|-------1------------2-------0---| -----2------2------2------2---|----------2---2---2-------0-----| --0-------------3-------------|-----2------2---0---------------| ------------------------------|--0---------------------3-------|

-----------------------------|------------------------------| -------1--------1------------|-------1-------------1--------| ----------2---2-1------1-----|----------0---0---------0---0-| ------------3---3---3----3---|-----2------2------2------2---| -----3----------3----------3-|--3-------------3-------------| --1-------------1------------|------------------------------|

|-------------------------------|------------------------------| |--------1-------------1--------|-------1-------------1--------| |*----------0---0---------0---0-|----------2---2---------2---2-| |*-----2------2------2------2---|-----2------2------2------2---| |---3-------------3-------------|--0-------------0-------------| |-------------------------------|------------------------------|

------------------------------|-------------------------------|| -------1-------------1--------|-------1-------------3---------|| ----------2---2---------2---2-|----------0---0---------0-----*|| ------------3-------------3---|-----2------2-------------0---*|| -----3-------------3----------|--3----------------2--------2--|| --1-------------1-------------|----------------3--------------||

------------------------------|--------------------------------| -------1-------------1--------|-------1--------------1-------1-| ----------2---2---------0---0-|----------2---2-----0-------0---| -----2------2------2------2---|------------3-----2-------0-----| --0-------------3-------------|-----3----------3-------2-------| ------------------------------|--1-----------------------------|

------------------------------|------------------------------| -------1-------------1--------|-------3-------------3--------| ----------2---2---------0---0-|----------0-------------0-----| -----2------2------2------2---|------------0-------------0---| --0-------------3-------------|-----2--------2----2--------2-| ------------------------------|--3-------------3-------------|

------------------------------|--------------------------------| -------1-------------1--------|----------------------1-------1-| ----------2---2---------0---0-|-------1------------2-------0---| -----2------2------2------2---|----------2---2---2-------0-----| --0-------------3-------------|-----2------2---0---------------| ------------------------------|--0---------------------3-------|

------------------------------|------------------------------| -------1--------1----1--------|-------1-------------1--------|

----------2---2-1-------1-----|----------0---0---------0---0-| ------------3---3--3------3---|-----2------2------2------2---| -----3----------3-----------3-|--3-------------3-------------| --1-------------1-------------|------------------------------|

|-------------------------------|------------------------------| |--------1-------------1--------|-------1-------------1--------| |*----------0---0---------0---0-|----------2---2---------2---2-| |*-----2------2------2------2---|-----2------2------2------2---| |---3-------------3-------------|--0-------------0-------------| |-------------------------------|------------------------------|

------------------------------|-------------------------------|| -------1-------------1--------|-------1-------------3---------|| ----------2---2---------2---2-|----------0---0---------0-----*|| ------------3-------------3---|-----2------2-------------0---*|| -----3-------------3----------|--3----------------2--------2--|| --1-------------1-------------|----------------3--------------||

------------------------------|--------------------------------| -------1-------------1--------|-------1--------------1-------1-| ----------2---2---------0---0-|----------2---2-----0-------0---| -----2------2------2------2---|------------3-----2-------0-----| --0-------------3-------------|-----3----------3-------2-------| ------------------------------|--1-----------------------------|

------------------------------|------------------------------| -------1-------------1--------|-------3-------------3--------| ----------2---2---------0---0-|----------0-------------0-----| -----2------2------2------2---|------------0-------------0---| --0-------------3-------------|-----2--------2----2--------2-| ------------------------------|--3-------------3-------------|

------------------------------|--------------------------------| -------1-------------1--------|----------------------1-------1-| ----------2---2---------0---0-|-------1------------2-------0---| -----2------2------2------2---|----------2---2---2-------0-----| --0-------------3-------------|-----2------2---0---------------|

------------------------------|--0---------------------3-------|

------------------------------|------------------------------| -------1--------1----1--------|-------1-------------1--------| ----------2---2-1-------1-----|----------0---0---------0---0-| ------------3---3--3------3---|-----2------2------2------2---| -----3----------3-----------3-|--3-------------3-------------| --1-------------1-------------|------------------------------|

|-------------------------------|------------------------------| |--------1-------------1--------|-------1-------------1--------| |*----------0---0---------0---0-|----------2---2---------2---2-| |*-----2------2------2------2---|-----2------2------2------2---| |---3-------------3-------------|--0-------------0-------------| |-------------------------------|------------------------------|

------------------------------|-------------------------------|| -------1-------------1--------|-------1-------------3---------|| ----------2---2---------2---2-|----------0---0---------0-----*|| ------------3-------------3---|-----2------2-------------0---*|| -----3-------------3----------|--3----------------2--------2--|| --1-------------1-------------|----------------3--------------||

------------------------------|------------------------------| -------1-------------1--------|-------1-------------1--------| ----------1---1---------1---1-|----------1---1---------1---1-| ------------3-------------3---|------------3-------------3---| -----3-------------3----------|-----3-------------3----------| --1-------------1-------------|--1-------------1-------------|

------------------------------|--------------------------------| -------1-------------1--------|-------1--------------1-------1-| ----------2---2---------0---0-|----------2---2-----0-------0---| -----2------2------2------2---|------------3-----2-------0-----| --0-------------3-------------|-----3----------3-------2-------| ------------------------------|--1-----------------------------|

------------------------------|------------------------------| -------1-------------1--------|-------3-------------3--------| ----------2---2---------0---0-|----------0-------------0-----|

-----2------2------2------2---|------------0-------------0---| --0-------------3-------------|-----2--------2----2--------2-| ------------------------------|--3-------------3-------------|

------------------------------|--------------------------------| -------1-------------1--------|----------------------1-------1-| ----------2---2---------0---0-|-------1------------2-------0---| -----2------2------2------2---|----------2---2---2-------0-----| --0-------------3-------------|-----2------2---0---------------| ------------------------------|--0---------------------3-------|

------------------------------|------------------------------| -------1--------1----1--------|-------1-------------1--------| ----------2---2-1-------1-----|----------0---0---------0---0-| ------------3---3--3------3---|-----2------2------2------2---| -----3----------3-----------3-|--3-------------3-------------| --1-------------1-------------|------------------------------|

--------------------|-------------------|| --1--------1--------|--1----------------|| --2--------1--------|--0----------------|| --3--------3--------|--2----------------|| --3--------3--------|--3----------------|| --1--------1--------|-------------------|| END +-------------------------------------------------------------------------+ | This file is the author's own work and represents their interpretation | | of the song. You may only use this file for private study, scholarship, | | or research. | +-------------------------------------------------------------------------+