Docstoc

tabs

Document Sample
tabs Powered By Docstoc
					    Martin Bisson




 Mes Tablatures



Généré automatiquement




   20 juillet 2012
Table des matières

Table des matières.......................................................................................................................................................... ii
Complètes ............................................................................................................................................................................... 1
   ??? - South Park .......................................................................................................................................................... 2
   Ace Of Base - Beautiful Life .............................................................................................................................. 4
   Alain Simard - Mlle A .............................................................................................................................................. 7
   America - Horse With No Name .............................................................................................................................. 9
   André Guitare - La petite grenouille......................................................................................................... 11
   Barenaked Ladies - If I Had A Million Dollars ................................................................................... 16
   Beach Boys - California Girls ......................................................................................................................... 19
   Beatles - Across The Universe ......................................................................................................................... 21
   Beatles - Let It Be ................................................................................................................................................. 23
   Beatles - Michelle.................................................................................................................................................... 25
   Beau Dommage - Ginette .......................................................................................................................................... 27
   Beau Dommage - Harmonie Du Soir À Châteauguay ................................................................................... 29
   Beau Dommage - La Complainte Du Phoque En Alaska ............................................................................ 31
   Beau Dommage - Le blues d'la métropole .................................................................................................... 33
   Beau Dommage - Vingt-Trois Décembre ........................................................................................................... 36
   Ben E King - Stand By Me ..................................................................................................................................... 38
   Bob Dylan - Knockin' On Heaven's Door ...................................................................................................... 40
   Bob Walsh - House Of The Rising Sun ........................................................................................................... 41
   Bobby McFerrin - Don't Worry Be Happy ...................................................................................................... 43
   Brasse Camarade - Aline ........................................................................................................................................ 45
   Carla Bruni - Quelqu'un m'a dit..................................................................................................................... 47
   Cat Stevens - Wild World ..................................................................................................................................... 49
   Cayouche - Tu m'as flushé ................................................................................................................................... 51
   Charles Aznavour - Hier Encore ....................................................................................................................... 53
   Charlie Parker - Donna Lee ................................................................................................................................ 55
   Claude Dubois - Comme Un Million De Gens ............................................................................................... 57
   Claude Dubois - En voyage ................................................................................................................................... 59
   Claude Dubois - Femme De Rêve ......................................................................................................................... 61
   Colocs - Julie ............................................................................................................................................................. 62
   Colocs - Juste une p'tite nuite..................................................................................................................... 64
                                                                                                                                                                                         ii
Counting Crows - Mr. Jones ................................................................................................................................ 66
Cowboys Fringants - Banlieue ............................................................................................................................ 69
Cowboys Fringants - Le Shack À Hector ...................................................................................................... 77
Cowboys Fringants - Mon Chum Rémi ................................................................................................................ 80
Cowboys Fringants - Toune D'Automne ........................................................................................................... 83
Cowboys Fringants - À' Polyvalente ............................................................................................................. 85
Crampe en masse - Berceuse pour les pas fins ..................................................................................... 87
Crampe en Masse - Motel California ............................................................................................................. 88
Damien Rice - The Blower's Daughter ........................................................................................................... 90
Daniel Boucher - Boules à mites..................................................................................................................... 91
Daniel Bélanger - La Folie en Quatre......................................................................................................... 96
Daniel Bélanger - Le Parapluie ....................................................................................................................... 98
Daniel Bélanger - Les Deux Printemps....................................................................................................... 102
Daniel Bélanger - Les Temps Fous ................................................................................................................ 104
Daniel Bélanger - Opium ...................................................................................................................................... 106
Daniel Bélanger - Sèche Tes Pleurs ........................................................................................................... 108
Dave Brubeck - Take Five ................................................................................................................................... 110
David Bowie - Space Oddity .............................................................................................................................. 112
Elvis Presley - Blue Christmas ..................................................................................................................... 114
Eminem - Stan.............................................................................................................................................................. 115
Eric Clapton - Layla ............................................................................................................................................. 119
Eric Clapton - Tears In Heaven ..................................................................................................................... 123
Everlast - What It's Like ................................................................................................................................. 126
Extreme - More Than Words ................................................................................................................................. 130
Francis Cabrel - Je l'aime à mourir ......................................................................................................... 132
Francis Cabrel - Je t'aimais, je t'aime et je t'aimerai ......................................................... 134
Félix Leclerc - Le p'tit bonheur ................................................................................................................ 137
Georges Brassens - Le temps ne fait rien à l'affaire ................................................................ 139
Gloria Gaynor - I Will Survive ..................................................................................................................... 141
Green Day - Good Riddance (Time Of Your Life) ................................................................................. 143
Guns N Roses - Don't cry ................................................................................................................................... 145
Hammerstein - All The Things You Are....................................................................................................... 148
Harmonium - Dixie .................................................................................................................................................... 150

                                                                                                                                                                            iii
Iggy Pop - The Passenger ................................................................................................................................... 152
Israel Kamakawiwo Ole - Somewhere Over The Rainbow ..................................................................... 155
Jamil - Fuck faut qu'tu changes................................................................................................................... 156
Jamil - Je pète au lit ........................................................................................................................................ 159
Jamil - Je Ronfle .................................................................................................................................................... 161
Jamil - Ça coûte cher .......................................................................................................................................... 162
Jason Mraz - I'm Yours ........................................................................................................................................ 167
Jean Leloup - Alger ............................................................................................................................................... 170
Jean Leloup - Balade à Toronto ..................................................................................................................... 173
Jean Leloup - Barcelone ...................................................................................................................................... 176
Jean Leloup - Bertha ............................................................................................................................................. 179
Jean Leloup - Cookie ............................................................................................................................................. 183
Jean Leloup - Cruel Song ................................................................................................................................... 186
Jean Leloup - Décadence ...................................................................................................................................... 188
Jean Leloup - Edgar ............................................................................................................................................... 190
Jean Leloup - I Lost My Baby .......................................................................................................................... 192
Jean Leloup - Isabelle ........................................................................................................................................ 195
Jean Leloup - Je joue de la guitare ......................................................................................................... 197
Jean Leloup - Johnny Go ...................................................................................................................................... 203
Jean Leloup - L'antiquaire .............................................................................................................................. 205
Jean Leloup - La Chambre ................................................................................................................................... 210
Jean Leloup - Le Monde Est À Pleurer....................................................................................................... 213
Jean Leloup - Les Fourmis ................................................................................................................................. 217
Jean Leloup - Les papillons ............................................................................................................................ 220
Jean Leloup - Les Rats ........................................................................................................................................ 222
Jean Leloup - Les remords du commandant ............................................................................................... 225
Jean Leloup - Nathalie ........................................................................................................................................ 228
Jean Leloup - Petite fleur .............................................................................................................................. 231
Jean Leloup - Printemps Été ............................................................................................................................ 235
Jean Leloup - Promeneur ...................................................................................................................................... 238
Jean Leloup - Sang D'Encre .............................................................................................................................. 241
Jean Leloup - Voilà (version Big Band) .................................................................................................. 244
Jean Leloup - Voyager .......................................................................................................................................... 247

                                                                                                                                                                       iv
Joe Dassin - Les Champs-Élysées................................................................................................................... 250
Kain - Fausse misère ............................................................................................................................................. 251
Kain - Grandir ........................................................................................................................................................... 257
Lady Gaga - Bad Romance ...................................................................................................................................... 260
Lauryn Hill - Can't Take My Eyes Of You ............................................................................................... 263
Les Trois Accords - L'eusses-tu cru ......................................................................................................... 265
Live - Lightning Crashes ................................................................................................................................... 267
Louis Armstrong - What A Wonderful World ............................................................................................. 270
Louise Attaque - Je t'emmène au vent....................................................................................................... 271
Madonna - La Isla Bonita ................................................................................................................................... 274
Manu Chao - Clandestino ...................................................................................................................................... 276
Manu Chao - Desaparecido ................................................................................................................................... 278
Marc Déry - Libre .................................................................................................................................................... 281
Marc Déry - Ma Révérence ................................................................................................................................... 283
Marc Labrèche - Allons Tous À Jérusalem ............................................................................................... 285
Metallica - Nothing Else Matters ................................................................................................................ 287
Metallica - The Unforgiven .............................................................................................................................. 293
Michel Fugain - Une Belle Histoire ........................................................................................................... 297
Miles Davis - 'Round Midnight ....................................................................................................................... 299
Miles Davis - So What .......................................................................................................................................... 302
Mononc Serge - Fourrer ........................................................................................................................................ 303
Mononc serge - Les Grosses Torches Acadiennes ................................................................................. 307
Mr Big - To Be With You ...................................................................................................................................... 309
Nirvana - Where Did You Sleep Last Night ............................................................................................. 311
No Doubt - Don't Speak ........................................................................................................................................ 313
Oasis - Don't Look Back In Anger ................................................................................................................ 316
Oasis - Wonderwall.................................................................................................................................................. 318
Offspring - Self Esteem ...................................................................................................................................... 320
Opus - Life Is Life ............................................................................................................................................... 323
Pat Woods - Poor Lonesome Cowboy ................................................................................................................ 325
Patrick Zabé - Agadou .......................................................................................................................................... 327
Paul Piché - Heureux D'Un Printemps ......................................................................................................... 329
Paul Piché - Y A Pas Grand Chose Dans L'Ciel À Soir ................................................................... 331

                                                                                                                                                                            v
Philippe Lafontaine - Coeur De Loup ......................................................................................................... 333
Pink Floyd - Pigs On The Wing ....................................................................................................................... 335
Pink Floyd - Wish You Were Here................................................................................................................... 336
Plain White T's - Hey There Delilah ......................................................................................................... 339
Plume Latraverse - Jonquière .......................................................................................................................... 341
Plume Latraverse - Rideau ................................................................................................................................. 343
Queen - We Are The Champions .......................................................................................................................... 346
R.E.M. - Losing My Religion ............................................................................................................................ 348
Radiohead - Karma Police ................................................................................................................................... 351
Red Hot Chili Peppers - Under the bridge ............................................................................................. 353
Respectables - Amalgame ...................................................................................................................................... 356
Respectables - La Java ........................................................................................................................................ 361
Respectables - Libre ............................................................................................................................................. 363
Respectables - Ma vie à l'heure................................................................................................................... 365
Respectables - Souviens-toi ............................................................................................................................ 368
Richard Desjardins - Le Bon Gars ................................................................................................................ 372
Richard Petit - Niaiseux ................................................................................................................................... 374
Robert Charlebois - Les Ailes D'un Ange ............................................................................................... 376
Robert Charlebois - The Frog Song .............................................................................................................. 378
Roch Voisine - Hélène .......................................................................................................................................... 380
Rufus Wainwright - La Complainte De La Butte ................................................................................... 382
Shakira - Whenever, Wherever .......................................................................................................................... 384
Starmania - Le Blues du Businessman ......................................................................................................... 387
Stevie Ray Vaughan - Life By The Drop .................................................................................................... 389
Stone Temple Pilot - Creep .............................................................................................................................. 392
Sublime - Santeria.................................................................................................................................................. 394
Third Eye Blind - How's It Going To BE .................................................................................................. 396
Tom Petty - Last Dance With Mary Jane .................................................................................................... 398
U2 - One.......................................................................................................................................................................... 400
Vilain Pingouin - Délinquance ....................................................................................................................... 404
Vilain Pingouin - Le train .............................................................................................................................. 407
Vincent Vallières - Plate ................................................................................................................................. 410
Vincent Vallières - Tom ...................................................................................................................................... 414

                                                                                                                                                                                   vi
   Violent Femmes - Blister In The Sun ......................................................................................................... 416
   Weezer - Island In The Sun .............................................................................................................................. 418
   Weezer - The Sweater Song ................................................................................................................................. 421
   Wilfred Le Bouthillier - Amène-toi chez nous ................................................................................... 423
   Wilfred Le Bouthillier - Amène-toi chez nous ................................................................................... 425
   Yannick St-Arnaud - Ta Femme .......................................................................................................................... 427
   Zachary Richard - Jean Batailleur .............................................................................................................. 430
   Zébulon - R'viens pas trop tard................................................................................................................... 432
   Zébulon - Y Fait Chaud ........................................................................................................................................ 434
Par Les Autres ............................................................................................................................................................... 436
   Nancy Sinatra - Bang Bang ................................................................................................................................. 437
Classiques ......................................................................................................................................................................... 442
   ??? - Greensleeves.................................................................................................................................................. 443
   ??? - Le bon roi Dagobert ................................................................................................................................. 444
   ??? - Le p'tit renne au nez rouge .............................................................................................................. 445
   ??? - Romance (Jeux Interdits) ..................................................................................................................... 446
   ??? - Yankee Doodle ............................................................................................................................................... 448
   Bethoveen - Fur Elyse .......................................................................................................................................... 449
Incomplètes ...................................................................................................................................................................... 451
   ACDC - Thunderstruck ............................................................................................................................................. 452
   Aerosmith - Dream On ............................................................................................................................................. 453
   Bee Gee's - Stayin' Alive ................................................................................................................................. 454
   Blink 182 - What's my age again................................................................................................................... 455
   Bob Sinclair - Love Generation ..................................................................................................................... 456
   C C Music Factory - Gonna Make You Sweat (Everybody Dance Now) ........................................ 457
   Chris Isaak - Baby Did A Bad Bad Thing .................................................................................................. 458
   Fugees - No woman no cry ................................................................................................................................... 459
   Green Day - Longview ............................................................................................................................................. 460
   Guess Who - American Woman .............................................................................................................................. 461
   Jean Leloup - Faire des enfants................................................................................................................... 462
   Jean Leloup - Johnny Go ...................................................................................................................................... 464
   Jean Leloup - La Drop Sociale ....................................................................................................................... 465
   Joan Jett - I love rock'n'roll ..................................................................................................................... 466

                                                                                                                                                                                    vii
   Led Zeppelin - Babe I'm Gonna Leave You ............................................................................................... 467
   Led Zeppelin - Black Dog ................................................................................................................................... 469
   Led Zeppelin - Heartbreaker ............................................................................................................................ 470
   Led Zeppelin - Whole Lotta Love................................................................................................................... 471
   Lenny Kravitz - Always On The Run .............................................................................................................. 472
   Marilyn Manson - Sweet Dreams ....................................................................................................................... 473
   Mase - What You Want ............................................................................................................................................. 474
   Metallica - To Live Is To Die ....................................................................................................................... 475
   Niagara - J'ai vu .................................................................................................................................................... 476
   Nirvana - Come As You Are ................................................................................................................................. 477
   Nirvana - Lithium .................................................................................................................................................... 478
   Offspring - The Kids Aren't Allright....................................................................................................... 479
   Radiohead - Talk Show Host .............................................................................................................................. 480
   Respectables - Homme 7-Up ................................................................................................................................. 481
   Respectables - L'Argent Fait Le Bonheur ............................................................................................... 482
   Santana - Put Your Lights Out ....................................................................................................................... 483
   The Cure - Lullaby.................................................................................................................................................. 484
   Toto - Hold The Line ............................................................................................................................................. 486
   Wyclef Jean - 911 .................................................................................................................................................... 488
Misc ....................................................................................................................................................................................... 489
   Martin Bisson - Petit Accompagnement....................................................................................................... 490
   ??? - Haiti Chérie.................................................................................................................................................. 491
   Blues - Riffs.............................................................................................................................................................. 493




                                                                                                                                                                                           viii
Complètes

     Cette section contient les tablatures provenant des fichiers contenus
dans le répertoire « Complètes ».




                                                                             1
??? - South Park

Shuffle beat


Version de l'épisode 202:

   4 +   1 + 2 + 3 + 4 +   1 + 2 + 3 + 4 +   1 + 2 + 3 + 4 +   1 + 2 + 3 + 4 +
e|-----|-----------------|-----------------|-----------------|-----------------|
B|-----|-----------------|-----------------|-----------------|-----------------|
G|-3-/-|-6---6---6-------|-9---9---9-------|-6---6---6-------|-9---9---9-------|
D|-2-/-|-5---5---5-------|-8---8---8-------|-5---5---5-------|-8---8---8-------|
A|-----|-----------------|-----------------|-----------------|-----------------|
E|-----|-----------------|-----------------|-----------------|-----------------|

   1 + 2 + 3 + 4 +   1 + 2 + 3 + 4 +   1 + 2 + 3 + 4 +   1 + 2 + 3 + 4 +
e|-----5-4---------|---------------3-|-6/7-5-----------|-----------------|
B|---6-----5---4---|-----------4-6---|-------6---------|-----------------|
G|-7---------5---4-|---------4-------|-----------5-3-5-|-6-5-3-2-2-------|
D|-----------------|-5---3-5---------|-----------------|-----------3-----|
A|-----------------|-----------------|-----------------|-----------------|
E|-----------------|-----------------|-----------------|-----------------|

   1 + 2 + 3 + 4 +   1 + 2 + 3 + 4 +   1 + 2 + 3 + 4 +   1 + 2 + 3 + 4 +
e|---------7-------|-----------------|---------4---5---|-----------------|
B|-----------------|-----------------|-----------------|-----/12-6-------|
G|-----------------|-----------------|-----------------|---------9-------|
D|---/-9-----------|-----------------|-----------------|-----------------|
A|-----------------|-6---5-4-5-6-5---|---/-6-----------|-6-- /10---------|
E|-------------6---|-----------------|-----------------|-----------------|

   1 + 2 + 3 + 4 +   1 + 2 + 3 + 4 +   1 + 2 + 3 + 4 +   1 + 2 + 3 + 4 +
e|-----------------|-----------------|-----------------|-------------------|
B|---------6-------|-----6-----------|---------6-------|-----9-9-10-10-9-9-|
G|-9-9-9-9-9---9-9-|-9-9-9-------6---|-9-9-9-9-9---9-9-|-9-9---------------|
D|-----------------|---------8-------|-----------------|-------------------|
A|-----------------|-----------------|-----------------|-------------------|
E|-----------------|-----------------|-----------------|-------------------|

   1 + 2 + 3 + 4 +   1 + 2 + 3 + 4 +   1 + 2 + 3 + 4 +   1 + 2 + 3 + 4 +
e|-----------------|-----------------|-----------------|-----------------|
B|-8---8---8---8---|-11--11--11------|-8---8---8---8---|-11--11--11------|
G|-6---6---6---6---|-9---9---9-------|-6---6---6---6---|-9---9---9-------|
D|-----------------|-----------------|-----------------|-----------------|
A|-----------------|-----------------|-----------------|-----------------|
E|-----------------|-----------------|-----------------|-----------------|

   1 + 2 + 3 + 4 +   1 + 2 + 3 + 4 +   1 + 2 + 3 + 4 +   1 + 2 + 3 + 4 +
e|-----------------|-----------------|-----------------|-----------------|
B|---------6-------|-----6-----------|-----6-------6-6-|-6---------------|
G|-9-9-9-9-9---9-9-|-9-9-9-------6---|-9-9-9-------9-9-|-9---------------|
D|-----------------|---------8-------|---------8-8-----|-8---------------|
A|-----------------|-----------------|-----------------|-----------------|
E|-----------------|-----------------|-----------------|-----------------|



Version de l'épisode 410:



                                                                                   2
   1 + 2 + 3 + 4 +   1 + 2 + 3 + 4 +   1 + 2 + 3 + 4 +   1 + 2 + 3 + 4 +
e|-----------------|-----------------|-----------------|-------------------|
B|---------6-------|-----6-----------|---------6-------|-----9-9-10-10-9-9-|
G|-9-9-9-9-9---9-9-|-9-9-9-------6---|-9-9-9-9-9---9-9-|-9-9---------------|
D|-----------------|---------8-------|-----------------|-------------------|
A|-----------------|-----------------|-----------------|-------------------|
E|-----------------|-----------------|-----------------|-------------------|

   1 + 2 + 3 + 4 +   1 + 2 + 3 + 4 +   1 + 2 + 3 + 4 +   1 + 2 + 3 + 4 +
e|-----------------|-----------------|-----------------|----/6-----------|
B|---------6-------|-----6-----------|-----------------|-----------------|
G|-9-9-9-9-9---9-9-|-9-9-9-------6---|-6-6-6---5-5-5---|-3---------------|
D|-----------------|---------8-------|-8-------6-------|-4---------------|
A|-----------------|-----------------|-----------------|---------8-------|
E|-----------------|-----------------|-----------------|-----------------|

   1 + 2 + 3 + 4 +   1 + 2 + 3 + 4 +   1 + 2 + 3 + 4 +   1 + 2 + 3 + 4 +
e|-----------------|-----------------|-----------------|-----------------|
B|-----------------|-----------------|-----------------|-----------------|
G|-----3-------3---|-----3-------3---|-----3-------3---|-----3-------3-/-|
D|-----2-------2---|-----2-------2---|-----2-------2---|-----2-------2-/-|
A|-----------------|-----------------|-----------------|-----------------|
E|-----------------|-----------------|-----------------|-----------------|

   1 + 2 + 3 + 4 +   1 + 2 + 3 + 4 +   1 + 2 + 3 + 4 +   1 + 2 + 3 + 4 +
e|-----------------|-----------------|-----------------|-----------------|
B|-----------------|-----------------|-----------------|-----------------|
G|-6---6---6-------|-9---9---9-------|-6---6---6-------|-9---9---9-------|
D|-5---5---5-------|-8---8---8-------|-5---5---5-------|-8---8---8-------|
A|-----------------|-----------------|-----------------|-----------------|
E|-----------------|-----------------|-----------------|-----------------|

   1 + 2 + 3 + 4 +   1 + 2 + 3 + 4 +
e|-----------------|-----------------|-------------
B|-----------------|-----------------|-------------
G|-----3-------3---|-----3-------3---|-----...-----
D|-----2-------2---|-----2-------2---|-------------
A|-----------------|-----------------|-------------
E|-----------------|-----------------|-------------




                                                                               3
Ace Of Base - Beautiful Life

Intro:


Cm       Fm     B      Eb   G
Cm       Fm     B      Eb   G
Cm       Fm     B      Eb   G
Cm       Fm     B      Eb   G


Cm                          Fm
   You can do what you want just seize the day
B                        Gsus4        G
   What you're doing tomorrow's gonna come your way
Cm                    Fm            B           G
   Don't you ever consider givin' up, you will find, oooh


Cm                      Fm
   It's a beautiful life, oh oh ooo
B                       Eb G
   It's a beautiful life, oh oh ooo
Cm                      Fm
   It's a beautiful life, oh oh ooo
B                      Eb G
   I just wanna be here beside you
Cm                      Fm
...
     B                           Eb   G
And stay until the break of dawn


Cm                        Fm
   Take a walk in the park when you feel down
B                              Gsus4          G
   There's so many things there that's gonna lift you up
Cm                        Fm
   See the nature in bloom a laughing child
B            G
   Such a dream, oooh


Cm                      Fm
   It's a beautiful life, oh oh ooo
B                       Eb G
   It's a beautiful life, oh oh ooo
Cm                      Fm
   It's a beautiful life, oh oh ooo
B                      Eb G
   I just wanna be here beside you
Cm                      Fm
...
B                      Eb G
   I just wanna be here beside you
Cm                      Fm
...
     B                           Eb   G
And stay until the break of dawn


                                                            4
Cm                      Fm
   You're looking for somewhere to belong
B           Gsus4    G
   You're standing all alone
Cm                   Fm
   For someone to guide you on your way
B    Gsus4      G
     Now and Forever


Cm                      Fm
   It's a beautiful life, oh oh ooo
B                       Eb G
   It's a beautiful life, oh oh ooo
Cm                      Fm
   It's a beautiful life, oh oh ooo
B                   Eb G
   I just wanna be anybody


Cm           Fm G
Cm           Fm G
Cm           Fm G
Cm           Fm G
             We're living in different ways

Cm                           Fm
     It's a beautiful life
                          B                  Eb G
I'm gonna take you to a place I've never been before oh yeah
Cm                       Fm
   It's a beautiful life
                            B            Eb        G
I'm gonna take you in my arms and fly away with you tonight


Cm      Fm       B                      Eb    G
   yeah, alright, it's a beautiful life
Cm      Fm       B                      Eb    G
   yeah, alright, it's a beautiful life


Cm                       Fm
   It's a beautiful life, oh oh ooo
B                        Eb G
   It's a beautiful life, oh oh ooo
Cm                       Fm
   It's a beautiful life, oh oh ooo
B                        Eb G
   It's a beautiful life


Cm                       Fm
   It's a beautiful life, oh oh ooo
B                        Eb G
   It's a beautiful life, oh oh ooo
Cm                       Fm
   It's a beautiful life, oh oh ooo
B                        Eb G
   It's a beautiful life

                                                               5
Fm...




        6
Alain Simard - Mlle A

     C#m    B     A     G#   D#m    C#    A#
e|----4-----7-----5-----4-----6-----9-----6----|
B|----5-----7-----5-----4-----7-----9-----6----|
G|----6-----8-----6-----5-----8-----10----7----|
D|----6-----9-----7-----6-----8-----11----8----|
A|----4-----9-----7-----6-----6-----11----8----|
E|----------7-----5-----4-----------9-----6----|


Intro (et accord de toute la chanson):

C#m     B      A      G#     4x

Mlle a tous les regards et moi j'ai les mots
À chaque fois qu'elle sort dans la rue on se retourne dans son dos
Et j'entends des voix qui chuchotent quand on marche au soleil
les jours de printemps
Mlle a une jolie robe moulée sur les reins
Y'a des gars qui la suivent et qui sifflent un air sourire en coin
Et moi je suis le seul à savoir qu'au milieu de ses nuits
il y a le refrain, le refrain

Et ça frappe à la porte c'est sûrement elle
Et la nuit qui s'approche dans le ciel
Et malgré toutes mes envies des autres
C'est toujours avec elle que je reviens

C#m     B      A      G#          2x

Mlle a dans ses tiroirs des dizaines de carnets
Tout plein de petites pages blanches sur lesquelles elle n'écrit jamais
Sauf pour les soirs de grandes déprimes quand les nuits sont noires et froides
comme on les connait
Mlle a un bel apart avec de grands murs blancs
D'où s'élève une jungle de plantes et de posters géants
Et sa musique au déjeuner me donne le goût de la mer et
des voyages au loin, voyages au loin

Et ça frappe à la porte c'est sûrement elle
Et la nuit qui s'approche dans le ciel
Et malgré toutes mes envies des autres
C'est toujours avec elle que je reviens

D#m        C#           B             A#
Mlle a mes rêves et moi j'ai le temps
     D#m            C#             B           A#
Mlle bouge comme on bouge quand on a vingt ans
          D#m      C#     B           A#       G#
Difficile de savoir quels sont ses sentiments

C#m     B      A      G#          2x




                                                                                 7
Mlle n'aime pas son travail mais ça paie assez bien
Alors elle attend que les heures passent et ensuite elle me rejoint
Ou alors elle disparait toute la nuit pour ne revenir
qu'aux petites heures du matin
Mlle a promis qu'un jour on partirait tous les deux
Loin des regards, dans une gare, une valise au milieu
Ou en avion pour voir les ruines à l'autre bout de la terre et danser
Danser, danser dans ses bras

Et ça frappe à la porte c'est sûrement elle
Et la nuit qui s'approche dans le ciel
Et malgré toutes mes envies des autres
C'est toujours avec elle que je reviens            2x




                                                                        8
America - Horse With No Name

Suffle beat

Intro (et rythme de base): 2x
   Em                          F#m13
      1  + 2    + 3   + 4   +   1    + 2  + 3   + 4   +
e|----------0---0-x---0-0---0-|-----0-x---0-----0-0---0---|
B|----------0---0-x---0-0---0-|-----0-x---0-----0-0---0---|
G|o---------0---0-x---0-0---0-|-----2-x---2-----2-2---2--o|
D|o---------2---2-x---2-2---2-|-----0-x---0-----0-0---0--o|
A|----------2---2-x---2-2---2-|-----0-x---0-----0-0---0---|
E|---0------0---0-x---0-0---0-|-2---2-x---2-----2-2---2---|

       Em                F#m13
On the first part of the journey
           Em                 F#m13
I was looking at all the life
            Em                         F#m13
There were plants and birds and rocks and things
            Em                      F#m13
There were sand and hills and rings
    Em                      F#m13
The first thing I met was a fly with a buzz
        Em               F#m13
And the sky with no clouds
    Em                   F#m13
The heat was hot and the ground was dry
        Em                    F#m13
But the air was full of sounds

     Em                            F#m13
I've been through the desert on a horse with no name
         Em                   F#m13
It felt good to be out of the rain
        Em                F#m13
In the desert you can't remember your name
             Em                  F#m13
'Cause there ain't no one for to give you no pain

La la la... (Em   F#m13   x4)

      Em              F#m13
After two days in the desert sun
   Em                 F#m13
My skin began to turn red
      Em                           F#m13
After three days in the desert fun
      Em                    F#m13
I was looking at a riverbed
         Em                 F#m13
And the story it told of a river that flowed
         Em                  F#m13
Made me sad to think it was dead




                                                              9
     Em                          F#m13
I've been through the desert on a horse with no name
         Em                   F#m13
It felt good to be out of the rain
        Em                F#m13
In the desert you can't remember your name
             Em                  F#m13
'Cause there ain't no one for to give you no pain

La la la... (Em   F#m13   x4)

       Em                 F#m13
After nine days I let the horse run free
              Em                     F#m13
'Cause the desert had turned to sea
              Em                       F#m13
There were plants and birds and rocks and things
              Em                     F#m13
There were sand and hills and rings
    Em                          F#m13
The ocean is a desert with its life underground
          Em                   F#m13
And the perfect disguise above
             Em         F#m13
Under the cities lies a heart made of ground
              Em                     F#m13
'Cause the humans will give no love

     Em                            F#m13
I've been through the desert on a horse with no name
         Em                   F#m13
It felt good to be out of the rain
        Em                F#m13
In the desert you can't remember your name
             Em                  F#m13
'Cause there ain't no one for to give you no pain

La la la... (Em   F#m13   x4)

--> Fade out




                                                       10
André Guitare - La petite grenouille

      B7    E     A
e|----2-----0-----0----
B|----0-----0-----2----
G|----2-----1-----2----
D|----1-----2-----2----
A|----2-----2-----0----
E|----------0----------


Riff de l'intro:

   + 4 +   1 + 2 + 3 + 4 +   1 + ...
e|-------|---2-------------|---0-
B|-------|---0-------------|---0-
G|-------|---2--...--------|---1-
D|-------|---1-------------|---2-
A|---0-1-|-2-2-------------|---2-
E|-4-----|-----------------|-0-0-



La p'tite grenouille dit au crapaud

Passe-moi trente sous t'auras de la peau
             B7
Ma crisse de chienne

Mais le crapeau lui répondit

Moi je ne veux pas sortir la nuit
                 E
Pis je garde mes cennes


C'était une chatte et un matou

Qui se disaient des petits mots doux
              B7
En dessous du poêle

Soudain la chatte se fâcha et dit
                                      E
Mon tabarnac de chat essaye pas de m'avoir


Et pis moé quand j'ai vu ça

Je me suis fait faire une graine en bois
               B7
Deux gosses en laine

On s'est mis à deux pour la crosser

Elle ne voulait pas décharger
                    E
La p'tite enfant de chienne



                                             11
Les p'tites filles à Campbellton

Y sont chaudes comme des moutonnes
                B7
Les petites bon-yennes

Y s'déculottent sur le bord de la côte
                                           E
Et pis une botte attend pas l'autre avec Antoine


Un habitant ben orgueilleux

S'était fait faire une graine de boeuf
                B7
Grosse comme la mienne

En allant fourrer ses vaches

Il me faisait la grimace
               E
Ah l'enfant de chienne


Y a des petites filles à St-Zénon

Qui aiment se faire pogner les tétons
                B7
Les petites bon-yennes

Si elles portent des culottes fendues

C'est pour mieux se faire pogner le cul
             E
En enfant de chienne


Un petit morpion motocycliste

Prenant mon trou cul pour une piste
             B7
roulait sans trève

Quand soudain dans un détour

Il fit un dérapage
                  E
Et pis tomba dans merde


Je ne suis pas curieux

Je voudrais bien savoir
                     A
Pourquoi les filles blondes
                   E
Ont le poil du cul noir




                                                   12
Pourquoi les grosses négresses à 90 ans
                        A
S'arrachent le poil des fesses
                            B7
Pour en faire des brosses à dents


          E              B7
Ah si mon coeur était grenouille
                    E
Je me creuserais un lac
                              B7
Pis moé j'aime ça quand ça chatouille
                                         E
Quand ça fait flic que flic que flic que flac


                               B7
C'est mon oncle Armand en sautillant
                                E
Pognait les cuisses à ma tante Alice
                                B7
Ma tante Germaine se corbait le corps
                            E
Suçait la grain à mon oncle Hector
                      B7
Fourrez-vous madame Giroux
                      E
Fourrez-vous madame Giroux
                      B7
Fourrez-vous madame Giroux
                 E
Dans votre grand trou


                      E                     A
La poche à mon grand-père est au plafond pendue
                        B7
Ma grand-mère en st-ciboire
                          E
Lui arrache le poil du cul
                              E
Elle monte en haut dans l'escabeau
                        A
Pour y en extraire le jus
                      B7
Voilà l'escabeau par terre
                  E
Grand-maman su le cul


                                     A
En bicycle à gazeline envoye donc fendue
               B7                           E
Fourre par en avant, oui t'auras de beaux enfants




                                                    13
                                E
Les p'tites filles du Rocher Percé
                                    A
Moi je vous dit qu'elles sont bien faites
                                 B7
Mais elle ne veulent pas faire minette
                      E
Pour un paquet de cigarettes


                                     A
En bicycle à gazeline envoye donc fendue
               B7                           E
Fourre par en avant, oui t'auras de beaux enfants


J'en ai fourré des gaspésiennes
                                     B7
Moi je vous dit qu'elles ont le sang chaud

J'en ai eu pour une semaine

A me frotter le bout de la graine
                       E
Pis d'avoir mal aux gorlots


Pogne-moi donc le cul Germaine
                           A
Je te pognerai le tien t'a l'heure
   B7
Tu l'as pas vu ma graine
                       E
Quand elle est à sa longueur

Monte en haut dans ma chambre
                   A
Étends-toi sur mon lit
       B7
Tu l'auras dans ta grande fente
                     E
La pissette du St-Esprit


C'est la fête à St-Antoine
                     A
La fête d'un grand jobeur
   B7
Ma femme s'est trouvée pleine
                           E
Dans semaine des quarante heures

C'est de la faute à sa mère
                      A
Si elle lui a pas cousu
     B7
La petite boutonnière
                         E
A deux pouces du trou de cul


                                                    14
Si tu m'aimerais chéri
                       A
Tu me ferais cuire des nouilles
   B7
Et pendant que tu y es
                   E
Tu me sucerais les boules


Ya-lalala-you-di...
A      E      B7      E
A      E      B7      E

Riff de l'intro 1x




                                  15
Barenaked Ladies - If I Had A Million Dollars

Riff intro:
                             A                 D
   1   + 2   + 3   + 4   +   1   ...           1   + 2   + 3   + 4   +   1
e|-------------------------|-------------   e|-2-----------------------|---
B|-------------------------|-------------   B|-3-----2h3p2-------------|---
G|-------------------------|-----...-----   G|-2-----------4---2-----2-|---
D|-------------------------|-------------   D|-0-----------------2h4---|---
A|-------------------------|-0-----------   A|-------------------------|-0-
E|-----------x-2---x-4---x-|-------------   E|-------------------------|---



Intro:


A   E    D
A   E    D riff
A   E    D
A   E    D


A    E         D
If I had a 1,000,000 (If I had a 1,000,000)
A        E              D
Well I'd buy you a house (I would buy you a house)
A    E         D
If I had a 1,000,000 (If I had a 1,000,000)
A           E                       D
I'd buy you furniture for your house (maybe a nice chesterfield or an ottoman)
A    E         D
If I had a 1,000,000 (If I had a 1,000,000)
A        E          D
Well I'd buy you a K-car (a nice reliant automobile)
A    E         D                  E
If I had a 1,000,000, I'd buy you love


D     E           A
If I had a 1,000,000
     A/G#        F#m    E
I'd build a treefort in our yard
D     E           A
If I had a 1,000,000
A/G#         F#m            E
You could help it wouldn't be that hard
D     E           A
If I had a 1,000,000
        A/G#        F#m   E                               D
Maybe we could put a little tiny fridge in there somewhere.
E




                                                                                 16
A   E   D
A   E   D
You know, we could just go up there and hang out...
Like open the fridge and stuff, and there’d all be foods laid out for us like
little pre-wrapped sausages and things. They have pre-wrapped sausages but they
don’t have pre-wrapped bacon.
Well can you blame them?
Yeah!


A      E         D
If I   had a 1,000,000 (If I had a 1,000,000)
A          E                 D
Well   I'd buy you a fur coat (but not a real fur coat that's cruel)
A      E         D
If I   had a 1,000,000 (If I had a 1,000,000)
A          E                    D
Well   I'd buy you an exotic pet (like a llama or an emu)
A      E         D
If I   had a 1,000,000 (If I had a 1,000,000)
A          E                             D
Well   I'd buy you John Merick's remains (All them crazy elephant bones)
A      E         D                  E
If I   had a 1,000,000 I'd buy your love



D    E          A
If I had a 1,000,000
   A/G#      F#m      E
We wouldn't have to walk to the store
D    E          A
If I had a 1,000,000
     A/G#         F#m          E
We'd take a limousine cause it costs more
D    E          A
If I had a 1,000,000
   A/G#     F#m         E    D
We wouldnt have to eat Kraft dinner
E

A   E   D
A   E   D
But we would eat Kraft dinner.
Of course we would, we’d just eat more.
And buy really expensive ketchups with it.
That’s right, all the fanciest Dijon ketchups.




                                                                                  17
A      E         D
If I   had a 1,000,000 (If I had a 1,000,000)
A          E                    D
Well   I'd buy you a green dress (but not a real green dress that's cruel)
A      E         D
If I   had a 1,000,000 (If I had a 1,000,000)
A          E               D
Well   I'd buy you some art (A Picasso or a Garfunkel)
A      E         D
If I   had a 1,000,000 (If I had a 1,000,000)
A          E           D
Well   I'd buy you a monkey (haven't you always wanted a monkey?)
A      E         D                  E
If I   had a 1,000,000 I'd buy your love

D    E             A A/G#    F#m   E
If I had   a 1,000,000 (If I had a 1,000,000)
D    E             A A/G#    F#m   E
If I had   a 1,000,000 If I had a 1,000,000
D    E             A A/G#    F#m   E   D
If I had   a 1,000,000
E                A
  I'd be   RICH!




                                                                             18
Beach Boys - California Girls

      B                                  B7
Well, East Coast girls are hip, I really dig those styles they wear
        E
And the Southern girls with the way they talk
              F#
They knock me out when I'm down there
    B                                 B7
The midwest farmers' daughters really make you feel alright
        E
And the Northern girls with the way they kiss
                 F#
They keep their boyfriends warm at night


  B                    C#m7
I wish they all could be California,
  A                    Bm7
I wish they all could be California,
  G                    Am7           B
I wish they all could be California Girls


    B                                    B7
The West coast has the sunshine, and the girls all get so tanned
         E
I dig a French bikini on Hawaiian Island dolls
      F#
By a palm tree in the sand
      B                                             B7
I've been all around this great big world and I've seen all kinds of girls
           E
Yeah, but I couldn't wait to get back in the states
             F#
Back to the cutest girls in the world


  B                    C#m7
I wish they all could be California,
  A                    Bm7
I wish they all could be California,
  G                    Am7           B
I wish they all could be California Girls


   1    + 2    + 3    + 4    +   1    + 2    + 3    + 4    +
e|-7-------------7-------------|-9-------------9-------------|
B|------7-9----7------7-9----7-|------7-9----7------7-9----7-|
G|-----------------------------|-----------------------------|
D|-----------------------------|-----------------------------|
A|-----------------------------|-----------------------------|
E|-----------------------------|-----------------------------|


  B
I wish they all could be California,
  C#m7
I wish they all could be California,


                                                                             19
Repeat and fade out...




                         20
Beatles - Across The Universe

       D      Bm    F#m    Em7     A      A7     Gm   A7sus4 G
e|-----2------2------2------0------0------0------3------0-----3-----|
B|-----3------3------2------3------2------2------3------3-----0-----|
G|-----2------4------2------0------2------0------3------0-----0-----|
D|-----0------4------4------2------2------2------5------2-----0-----|
A|------------2------4------2------0------0------5------0-----2-----|
E|-------------------2------0--------------------3------------3-----|

Intro:
   1 + 2     + 3 + 4 -    1 + 2 + 3 + 4 +   1 + 2 + 3 + 4 +
e|-2----/10-----9-7-5---|-----------------|-----------------|
B|--------------------7-|-----------------|-----------------|
G|-2----/11-----9-7-6---|-2-4-2-4-2-4-2-4-|-2-4-2-4-2-4-2-4-|
D|---0-------0----------|-4-4-4-4-4-4-4-4-|-2-2-2-2-2-2-2-2-|
A|----------------------|-2-2-2-2-2-2-2-2-|-0-0-0-0-0-0-0-0-|
E|----------------------|-----------------------------------|

D                 Bm               F#m
Words are flowing out like endless rain into a paper cup
Em7                                    A                  A7
They slither while they pass they slip away across the Universe.
D                Bm               F#m
Pools of sorrow, waves of joy are drifting through my opened mind
Em7              Gm
Possessing and caressing me.

D             A7sus4
Jai Guru Deva Om
A7
Nothing's gonna change     my world
G                             D
Nothing's gonna change     my world
A7
Nothing's gonna change     my world
G                             D
Nothing's gonna change     my world

D         Bm                 F#m                            Em7
Images of broken light which dance before me like a million eyes
                        A                   A7
They call me on and on across the Universe.
D                Bm              F#m
Thoughts meander like a restless wind inside a letterbox
     Em7                               A                 A7
They tumble blindly as they make their way across the Universe.

D                 A7sus4
Jai Guru De Va    Om
A7
Nothing's gonna   change my world
G                           D
Nothing's gonna   change my world
A7
Nothing's gonna   change my world
G                           D
Nothing's gonna   change my world



                                                                        21
D                   Bm                    F#m
Sounds of laughter, shades of   earth are ringing through my opened ears
Em7          Gm
Inciting and inviting me.
D            Bm                 F#m                             Em7
Limitless, undying love which   shines around me like a million suns
                        A              A7
And calls me on and on across   the Universe.

D             A7sus4
Jai Guru Deva Om
A7
Nothing's gonna change   my world
G                           D
Nothing's gonna change   my world
A7
Nothing's gonna change   my world
G                           D
Nothing's gonna change   my world

D
Jai Guru Deva.   (Repeat)




                                                                           22
Beatles - Let It Be

Intro: (et riff principal)
   C       G         Am    G F         C       G        Riff 1
   1 + 2 + 3 + 4 +   1 + 2 + 3 + 4 +   1 + 2 + 3 + 4 +   1 + 2 + 3 + 4 +
E|-0---0-0-3---3-3-|-0---0-3-1---1---|-0---0-0-3---3-3-|-5---3-1-0-------|
B|-1---1-1-0---0-0-|-1---1-0-1---1---|-1---1-1-0---0-0-|-6---5-3-1-------|
G|-0---0-0-0---0-0-|-2---2-0-2---2---|-0---0-0-0---0-0-|-5---4-2-0-------|
D|-2---2-2-0---0-0-|-2---2-0-3---3---|-2---2-2-0---0-0-|---------2-------|
A|-3---3-3-2---2-2-|-0---0-2-3---3---|-3---3-3-2---2-2-|---------3-------|
E|---------3---3-3-|-------3-1---1---|---------3---3-3-|-----------------|

       C              G                  Am         F
When I find myself in times of trouble, Mother Mary comes to me
C                 G               Riff 1
Speaking words of wisdom, let it be
    C             G                 Am                F
And in my hour of darkness, She is standing right in front of me
C                 G               Riff 1
Speaking words of wisdom, Let it be

        Am          G          F           C
Let it be, let it be, let it be, let it be
C                G               Riff 1
Whisper words of wisdom, let it be

    C               G               Am            F
And when the broken hearted people, Living in the world agree
C                G               Riff 1
There will be an answer, let it be
    C                  G                Am                  F
But though they may be parted, There is still a chance that they will see
C                G       Riff 1
There will be an answer, let it be

        Am          G           F          C
Let it be, let it be, let it be, let it be
C                G       Riff 1
There will be an answer, let it be

        Am          G          F           C
Let it be, let it be, let it be, let it be
C                G               Riff 1
Whisper words of wisdom, let it be

Riff 2
   1 + 2 + 3 + 4 +   1 + 2 + 3 + 4 +
e|-5---3-1-0-------|---------0-------|
B|-6---5-3-1---3-1-|-0-------1-------|
G|-5---4-2-0---4-2-|-0---2---0-------|    2x
D|-------------4-2-|-0---3---2-------|
A|-----------------|-----3---3-------|
E|-----------------|-----------------|

Solo (riff principal 2x)

        Am          G          F           C
Let it be, let it be, let it be, let it be
C                G               Riff 1
Whisper words of wisdom, let it be

                                                                             23
    C                 G                 Am                F
And when the night is cloudy, There is still a light that shines on me
C               G               Riff 1
Shine on till tomorrow, let it be
  C               G               Am         F
I wake up to the sound of music, Mother Mary comes to me
C                   G              Riff 1
Speaking words of wisdom, let it be

        Am          G           F          C
Let it be, let it be, let it be, let it be
C                G       Riff 1
There will be an answer, let it be

        Am          G          F           C
Let it be, let it be, let it be, let it be
C                G               Riff 1
Whisper words of wisdom, let it be

Riff 2 (finale)




                                                                         24
Beatles - Michelle

    F    Bbm7   Eb   Ddim   C     G7    Fm   Ab7    Db    C7
e|--1-----1-----3-----2-----0-----------1-----------4---------|
B|--1-----2-----4-----1-----1-----3-----1-----4-----6-----1---|
G|--2-----1-----3-----2-----0-----4-----1-----5-----6-----3---|
D|--3-----3-----1-----1-----2-----3-----3-----4-----6-----2---|
A|--3-----1-----------------3-----x-----3-----x-----4-----3---|
E|--1-----------------------------3-----1-----4---------------|

Shuffle beat

Intro: (riff 1)
   1 + 2 + 3 + 4 +   1 + 2 + 3 + 4    +
e|-----------------|--------------------|
B|---1---1---1---1-|--------------------|
G|---1---1---1---1-|---1-3-1-/5-5---5---|
D|-3---2---1---0---|---3-3-1-/5-5---5---|
A|-----------------|-4-------/3---3---3-|
E|-----------------|--------------------|

F       Bbm7            Eb                   Ddim        C     G7     C
Michelle, ma belle,     these are words that go together well, my Michelle
F       Bbm7            Eb                Ddim             C
Michelle, ma belle,     sont les mots qui vont très bien ensemble,
G7        C
très bien ensemble

Fm                                 Ab7                   Db
I love you, I love you, I love you, that's all I want to say
C7                 Fm
until I find a way
       Riff 1
I will say the only words I know that you'll understand.

F       Bbm7        Eb                Ddim             C
Michelle, ma belle, sont des mots qui vont très bien ensemble,
G7        C
très bien ensemble

Fm                                 Ab7                 Db
I need you, I need you, I need you, I need to make you see
C7                  Fm
oh what you mean to me
   Riff 1
until I do I'm hoping you will know what I mean

(chanter solo)
F   Bbm7   Eb    Ddim      C   G7   C

Fm                                 Ab7                  Db
I want you, I want you, I want you, I think you know by now
C7                  Fm
I'll get to you somehow
   Riff 1
until I do I'm telling you so you'll understand




                                                                             25
F       Bbm7        Eb                Ddim             C
Michelle, ma belle, sont les mots qui vont très bien ensemble,
G7        C
très bien ensemble

       Riff 1                                                 F
I will say the only words I know that you'll understand, my Michelle

Bbm7   Eb   Ddim   C   G7   C    F   (finale)




                                                                       26
Beau Dommage - Ginette

    D      Bm     Gm     A     F#m    C#7     C      G     Fdim
e|--2------2------3------0------2-------------0------3------4----|
B|--3------3------3------2------2------2------1------3------3----|
G|--2------4------3------2------2------4------0------0------4----|
D|--0------4------5------2------4------3------2------0------3----|
A|---------2------5------0------4------4------3------2-----------|
E|----------------3-------------2--------------------3-----------|

~ = on joue l'accord lentement de haut en bas

Intro (et rythme de base):
   D                 Bm                Gm                A
   1 + 2 + 3 + 4 +   1 + 2 + 3 + 4 +   1 + 2 + 3 + 4 +   1 + 2 + 3 + 4 +
e|----~2-2---2---2-|----~2-2---2---2-|----~3-3---3---3-|----~0-0---0---0-|
B|----~3-3---3---3-|----~3-3---3---3-|----~3-3---3---3-|----~2-2---2---2-|
G|----~2-2---2---2-|----~4-4---4---4-|----~3-3---3---3-|----~2-2---2---2-|
D|-0--~0-0---0---0-|----~4-4---4---4-|----~5-5---5---5-|----~2-2---2---2-|
A|-----------------|-2--~2-2---2---2-|----~5-5---5---5-|-0--~0-0---0---0-|
E|-----------------|-----------------|-3--~3-3---3---3-|-----------------|

   D                 Bm                Gm                A
   1 + 2 + 3 + 4 +   1 + 2 + 3 + 4 +   1 + 2 + 3 + 4 +   1 + 2 + 3 + 4 +
e|----~2-2---2---2-|----~2-2---2---2-|----~3-3---3---3-|-0-0-0-----------|
B|----~3-3---3---3-|----~3-3---3---3-|----~3-3---3---3-|-2-2-2-----------|
G|----~2-2---2---2-|----~4-4---4---4-|----~3-3---3---3-|-2-2-2-----------|
D|-0--~0-0---0---0-|----~4-4---4---4-|----~5-5---5---5-|-2-2-2-----------|
A|-----------------|-2--~2-2---2---2-|----~5-5---5---5-|-0-0-0-----------|
E|-----------------|-----------------|-3--~3-3---3---3-|-----------------|

D                           F#m                                    C#7
Voici la triste histoire vécue d'un gars tranquille d'une fille perdue
                      A
y l'a connue un lundi soir
Gm                        D
Chez des amis où y'était v'nu faire des devoirs
        C               A
Écoutez-le conter l'histoire

D                       F#m                              C#7
Je l'ai connue un lundi soir. C'est ben graver dans ma mémoire
                          A
A m'a d'mandé "Sais-tu danser?"
Gm                             D
J'y ai dit: non. A'est allée mettre un record
        C               A
J'avais signé mon arrêt d'mort

  G          F#m
Ginette, Ginette
G                          F#m
Avec tes seins pis tes souliers à talons hauts
G             A                Bm
T'as mis d'la brume dans mes lunettes
             Fdim      F#m
T'as fait de moi un animal, Ginette
A                            D      Bm    Gm     A
Fais-moi sauter dans ton cerceau


                                                                             27
D                             F#m                                   C#7
Dire que j'ai fait mon cours classique, j'men souviens pus à quel endroit
                        A
J'aimais ben les mathématiques
Gm                            D
Mais grâce à elle j'était content j'savais comment
            C               A
Compter les pas dans un cha-cha

  G          F#m
Ginette, Ginette
G                          F#m
Avec tes seins pis tes souliers à talons hauts
G             A                Bm
T'as mis d'la brume dans mes lunettes
             Fdim      F#m
T'as fait de moi un animal, Ginette
A                            D      Bm    Gm     A
Fais-moi sauter dans ton cerceau

D                     F#m                              C#7
On est allé un peu partout, on a dansé comme des vrais fous
                                  A
En d'ssous des boules faites en miroir
Gm                            D
J'aimais Ginette qui m'aimait pu, car un beau soir
               C                A
Comme dans les vues, a'est disparue

D                        F#m                                C#7
J'ai su hier où a'est rendue, mon chum l'a vu, a danse tout'nue
                              A
Dans un motel dans l'bout d'Sorel
Gm                        D
Est déshabillée mais a gardé ses beaux souliers
            C                  A
C'est ben assez pour s'faire aimer

  G          F#m
Ginette, Ginette
G                          F#m
Avec tes hhhhh pis tes souliers à talons hauts
G             A                Bm
T'as mis d'la brume dans mes lunettes
             Fdim      F#m
T'as fait de moi un animal, Ginette
A                            D      Bm    Gm     A    D
Fais-moi sauter dans ton cerceau               finale ^




                                                                            28
Beau Dommage - Harmonie Du Soir À Châteauguay

   D     A7   F#7    Bm   Bm/A   Em    G    F#m    A   Asus4   Db
e|-2-----0-----------2-----2-----0-----3-----2-----0-----0-----1--|
B|-3-----2-----2-----3-----3-----0-----3-----2-----2-----3-----2--|
G|-2-----0-----3-----4-----4-----0-----0-----2-----2-----2-----1--|
D|-0-----2-----2-----4-----4-----2-----0-----4-----2-----2--------|
A|-------------x-----2-----0-----2-----2-----4-----0-----0--------|
E|-------------2-----------------0-----3-----2--------------------|

Shuffle beat

Intro (et rythme de base, avec les notes de basse)
   D                                   A7                D
   1   +   2   +     1   +   2   +     1   +   2   +     1   +   2   +
e|-----2-2-----2-2-|-----2-2-----2-2-|-----0-0-----0-0-|-2---------------|
B|-----3-3-----3-3-|-----3-3-----3-3-|-----2-2-----2-2-|-3---------------|
G|-----2-2-----2-2-|-----2-2-----2-2-|-----0-0-----0-0-|-2---------------|
D|-0---0-0-----0-0-|-0---0-0-----0-0-|-----2-2-----2-2-|-0---------------|
A|---------0-------|---------0-------|-0---------------|-----------------|
E|-----------------|-----------------|---------0-------|-----------------|

(attention: alternance entre rythme 2/4 et 3/4 qui donne un rythme bizarre)

D                              D
Dimanche au soir à Châteauguay
                             A7
Les pieds pendant au bout du quai
             F#7             Bm     Bm/A
Les pieds pendant au bout du quai
             Em      A7           D
Les pieds pendant au bout du quai

D                              D
La rivière joue de l'harmonica
                                           A7
Ma blonde se baigne les pieds dans         l'eau
             F#7                           Bm          Bm/A
Ma blonde se baigne les pieds dans         l'eau
             Em         A7                         D
Ma blonde se baigne les pieds dans         l'eau

G                                            D
C'est plein d'oiseaux qui courent le         long de l'eau
G                              F#m
En chantant leurs chansons d'oiseau
G                                            D             A   Asus4   Asus4   A
C'est plein d'oiseaux qui courent le         long de l'eau

D                                      D
Les enfants r'viennent en   chaloupe
                     A7
Y ont pêché trois crapets   soleils
            F#7               Bm      Bm/A
Y ont pêché trois crapets   soleils
            Em       A7             D
Y ont pêché trois crapets   soleils




                                                                                   29
D                                 D
Les mouches à feu font des folies
                    A7
Les ouaouarons sont pas plus fins
          F#7                Bm     Bm/A
Les ouaouarons sont pas plus fins
          Em        A7            D
Les ouaouarons sont pas plus fins

G                       D
Plus tard on ira sur le sable s'étendre
G                          F#m
Pour compter les étoiles filantes
G                       D               A          Asus4   Asus4   A
Plus tard on ira sur le sable s'étendre


Solo : D      A7   F#7   Bm   Bm/A   Em   A7   D

G                       D
Plus tard on ira sur le sable s'étendre
G                          F#m
Pour compter les étoiles filantes
G                       D               A          Asus4   Asus4   A
Plus tard on ira sur le sable s'étendre

D                              D
Dimanche au soir à Châteauguay
                             A7
Les pieds pendant au bout du quai
             F#7             Bm     Bm/A
Les pieds pendant au bout du quai
             Em      A7           D    Dsus4 D
Les pieds pendant au bout du quai

Finale:
   A    Asus4      Asus4   D           D                           Db D
   1 + 2 + 3 + 4 +   1 + 2 + 3 + 4 +   1 + 2   + 3   + 4   +   1 + 2 + 3 + 4 +
e|-----------------|-----------------|-2-------5-----5-----5-|-----------------|
B|-2-----3---------|-3-----2---------|-3---6h7---6h7---6h7---|-7---6-/-7-------|
G|-2-----2---------|-2-----2---------|-2---------------------|-7---6-/-7-------|
D|-2-----2---------|-2-----2---------|-0---------------------|-7---6-/-7-------|
A|-0-----0---------|-0-----0---------|-----------------------|-----------------|
E|-----------------|-----------------|-----------------------|-----------------|




                                                                                   30
Beau Dommage - La Complainte Du Phoque En Alaska

    Eb   Bb   G    Fm   Gm   C    D    Cm   F   Bb7 Bb/D Adim Edim Bbdim
e|--3----1----3----1----3----0----2----3----1----1----------2----3----0----|
B|--4----3----3----1----3----1----3----4----1----3----3-----1----2----2----|
G|--3----3----0----1----3----0----2----5----2----1----3-----2----3----0----|
D|--5----3----0----3----5----2----0----5----3----3----3-----1----2----2----|
A|--6----1----2----3----5----3---------3----3----1----5---------------1----|
E|------------3----1----3-------------------1------------------------------|

fill 1                                            fill 2
   1 + 2 + 3 +                                       1 + 2 + 3 +
e|-------------|                                  e|-------------|
B|-3---4---6---|                                  B|-5---6---8---|
G|-------------|   peut                           G|-------------|   peut
D|-------------| remplacer                        D|-------------| remplacer
A|-1---3---5---|    Bb                            A|-3---5---7---|    C
E|-------------|                                  E|-------------|


Intro: fill 1 suivi de

Eb        Bb      G        Fm   Bb         Eb      fill 1

    Eb                            Bb       G
Cré moé, cré moé pas, quéqu'part en Alaska
    Fm             Bb         Gm      C
Y'a phoque qui s'ennuie en maudit
   Fm            Bb D          Gm
Sa blonde est partie gagner sa vie
        Cm         F          Bb     Bb7
Dans un cirque aux États-Unis

   Eb                        Bb              G
Le phoque est tout seul, y r'garde le soleil
       Fm             Bb             Gm    C
Qui descend doucement sur le glacier
  Fm             Bb D              Gm
Y pense aux États en pleurant tout bas
            Cm                F       Bb   Bb7
C'est comme ça quand ta blonde t'a lâché

Eb Bb/D             Cm      Gm                  Cm
Ça vaut pas la peine de laisser ceux qu'on aime
      Gm              Fm        Bb           Eb       fill 1
Pour aller faire tourner des ballons sur son nez
Eb Bb/D            Cm              Gm       Cm
Ça fait rire les enfants, ça dure jamais longtemps
         Gm           Fm              Bb           Eb
Ça fait plus rire personne quand les enfants sont grands

D    Gm    Adim       Bb             Bb7        fill 1




                                                                               31
         Eb                   Bb                  G
Quand le phoque s'ennuie, y'r'garde son poil qui brille
          Fm               Bb            Gm     C
Comme les rues d'New-York après la pluie
  Fm            Bb    D        Gm
Y rêve à Chicago, à Marylin Monroe
     Cm                  F         Bb
Y voudrait voir sa blonde faire un show


Gm                Fm          C                    Dm
Gm                Fm          C                    Dm
Eb                Bb          Gm         Edim      Dm    Bbdim
Dm   Bbdim        Dm
Gm                Fm          C                    Dm
Eb                Bb          Gm         Edim      Dm    Bbdim
Dm   Bbdim        Eb   Bb/D   Cm         F         Bb    Bb7


      Eb                               Bb                  G
C'est rien qu'une histoire, j'peux pas m'en faire accroire
         Fm             Bb                   Gm    C
Mais des fois, j'ai l'impression qu'c'est moé

          Fm              Bb         D             Gm
Qui est assis sur la glace, les deux mains dans la face
     Cm          F             Bb    Bb7
Mon amour est partie pis je m'ennuie

Eb Bb/D             Cm      Gm                  Cm
Ça vaut pas la peine de laisser ceux qu'on aime
      Gm              Fm        Bb           Eb       fill 1
Pour aller faire tourner des ballons sur son nez
Eb Bb/D            Cm              Gm       Cm
Ça fait rire les enfants, ça dure jamais longtemps
         Gm           Fm              Bb           Eb
Ça fait plus rire personne quand les enfants sont grands

D    Gm       Adim     Bb          Bb7          fill 1

Eb Bb/D             Cm      Gm                  Cm
Ça vaut pas la peine de laisser ceux qu'on aime
      Gm             Fm         Bb
Pour aller faire tourner des ballons sur son nez

Gm           Fm         C          Dm




                                                                 32
Beau Dommage - Le blues d'la métropole

Shuffle beat
      G      C   C/B   Am7    D7   F#*    A     Am    Bm
e|----3-----0-----0-----0-----2-----------0-----0-----2----
B|----0-----1-----1-----1-----1-----------2-----1-----3----
G|----0-----0-----0-----0-----2-----------2-----2-----4----
D|----0-----2-----------2-----0-----------2-----2-----4----
A|----2-----3-----2-----0-----------------0-----0-----2----
E|----3-----------------------------2----------------------


Riff 1:
   G
   1    + 2  + 3   + 4   +    1   + 2   + 3   + 4   +
e|------3-----3-----3-------|-----3-----3-----3-----3--|
B|------0-----0-----0-------|-----0-----0-----0-----0--|
G|o-----0-----0-----0-----0-|-----0-----0-----0-----0-o|
D|o-------------0-----2-----|-------2-----0-----------o|
A|--------2-----------------|-------------------2------|
E|--3-----------------------|--------------------------|


Riff 2:
    G
    1   + 2    + 3   + 4   +
e|--3-----x----3-----15\------|
B|--0-----x----0-----15\------|
G|o-0-----x----0-------------o|
D|o-0-----x----0-------------o|
A|--2-----x----2--------------|
E|--3-----x----3--------------|


Riff 3:
    G
    1   + 2   + 3   + 4   +   1   + 2   + 3   + 4   +
e|--------------------------|--------------------------|
B|--------------------------|--------------------------|
G|o-------------------------|-------------0h2p0-------o|
D|o-------------------------|-------------------0h2p0-o|
A|--5---5-7---7-5---5-7---5-|-----5-7------------------|
E|--3---3-3---3-3---3-3---3-|-----3-3------------------|


Riff 4:
   Dsus2       Dsus2/C       Dsus2/B     Am
   1    + 2  + 3   + 4   +   1   + 2   + 3   + 4   +
e|-------0-----------0-----|-------0-----0-----------|
B|---3-------3---3------3--|---3-------3-1-----------|
G|-----2-----------2-------|-----2-------2-----------|
D|-0-----------------------|-------------2-----------|
A|-------------3-----------|-2-----------0-----------|
E|-------------------------|-------------------------|




                                                              33
Riff 5:
   Am     Am/B Am/C Am/C#    D
   1    + 2   + 3  + 4   +   1   + 2   + 3   + 4   +
e|-------------------------|-2-----------------------|
B|-----1-----1-----1-----1-|-3-----------------------|
G|---2-----2-----2-----2---|-2-----------------------|
D|-------------------------|-0-----------------------|
A|-0-----2-----3-----4-----|-------------------------|
E|-------------------------|-------------------------|


Intro:

Riff 1 ==> 2x
Riff 2 ==> 4x
Riff 3 ==> 2x

G
En soixante-sept tout était beau
                                                 C    C/B
C'était l'année d'l'amour, c'était l'année d'l'expo
Am7        D7           Am7             D7
Chacun son beau passeport avec une belle photo
Am7         D7                 Am7       D7              G
J'avais des fleurs d'ins'cheveux fallait-tu être niaiseux


Riff 1 ==> 2x

G
J'avais une blonde pas mal jolie
                                              C   C/B
A vit su' une terre avec quatorze de mes amis
Am7       D7            Am7            D7
Partie élever des poules à la campagne
Am7             D7        Am7               D7              G
Qui m'aurait dit que la nature allait un jour voler ma gang


Riff 1 ==> 1x

     G                                                 C                 G
Mais qu'est-ce qu'un gars peut faire quand qu'y'a pu l'goût de boire sa bière
                     F#*     Em           A                Dsus2 (Riff 4)
Quand y'est tanné de jouer à mère avec la fille de son voisin
          Am          Bm                C                    G
Tous mes amis sont disparus pis moé non plus j'me r'connais pus
           Em               Am (Riff 5)                  G
On est dix mille s'a rue St-paul avec le blues d'la métropole


Riff 1 ==> 1x

G
J'sais pu quoi dire à mes amis, non
                                                      C  C/B
Qui sont rendus où ben trop gelés ou ben trop chauds
Am7         D7                Am7                  D7
Y'en a deux trois qui sont rendu un peu trop beaux
Am7        D7            Am7                    D7                 G
Même Jésus Christ a embarqué mon ancienne blonde dans son troupeau
                                                                                34
Riff 1 ==> 1x

     G                                                 C                  G
Mais qu'est-ce qu'un gars peut faire quand qu'y'a pu l'goût de boire sa bière
                     F#*     Em           A                Dsus2 (Riff 4)
Quand y'est tanné de jouer à mère avec la fille de son voisin
          Am          Bm                C                    G
Tous mes amis sont disparus pis moé non plus j'me r'connais pus
           Em               Am (Riff 5)                  G
On est dix mille s'a rue St-paul avec le blues d'la métropole


Riff 1 ==> 1x
Riff 2 ==> 4x
Riff 3 ==> 2x


G
J'avais un chum qui était correct lui
                                                         C  C/B
Mais je l'vois plus y'est en prison dans l'bout d'Québec
Am7              D7                Am7              D7
Y'a mis des bombes quand qu'y'a perdu ses élections
Am7               D7             Am7              D7                     G
Si j'm'ennuie trop vous êtes ben mieux, vous êtes ben mieux d'faire attention


Riff 1 ==> 1x

     G                                                 C                  G
Mais qu'est-ce qu'un gars peut faire quand qu'y'a pu l'goût de boire sa bière
                     F#*      Em           A               Dsus2 (Riff 4)
Quand y'est tanné de jouer à mère avec la fille de son voisin
          Am          Bm                 C                   G
Tous mes amis sont disparus pis moé non plus j'me r'connais pus
           Em                Am (Riff 5)                 G
On est dix mille s'a rue St-paul avec le blues d'la métropole
                         G
Avec le blues d'la métropole

Avec le blues...




                                                                                35
Beau Dommage - Vingt-Trois Décembre

    Am     C      G      D    Dsus4    Bm    D/F#    Em     F
e|--0------0------3------2------3------2------2------0------1--|
B|--1------1------0------3------3------3------3------0----- 1--|
G|--2------0------0------2------2------4------2------0------2--|
D|--2------2------0------0------0------4------0------2------3--|
A|--0------3------2--------------------2------0------2---------|
E|----------------3---------------------------2------0---------|

 |------Fill 1-----|          exemple de rythme
                     Am
   1 + 2 + 3 + 4 +   1 - + - 2 - + - 3 - + - 4 - + -
e|-----------------|-----0-0-0-0-0-0-----0-0-0-0-0-0-|
B|-----------------|-----1-1-1-1-1-1-----1-1-1-1-1-1-|
G|-----------------|-----2-2-2-2-2-2-----0-0-0-0-0-0-|
D|-----------------|-----2-2-2-2-2-2-----2-2-2-2-2-2-|
A|-------------0-2-|-0---------------3---------------|
E|-----------3-----|---------------------------------|


Intro:           Fill 1    Am     C     G     G           2x

              Am             C                 G
J'ai dans la tête un vieux sapin une crèche en d'ssous
        Am            C              D         Dsus4 D
Un St-Joseph avec une canne en caoutchouc
           Am              D
Était mal fait pis j'avais fret
              Am                  Bm                  C
Quand je r'venais d'passer trois heures dans un igloo
                 Am             D                G
Qu'on avait fait deux ou trois gars chez Guy Rondou

                Am                     C              G
J'ai d'vant les yeux, quand chu heureux, une sorte de jeu
            Am               C               D          Dsus4 D
Qu'on avait eu, une sorte de grange avec des boeufs
         Am             D
La même année où j'ai passé
             Am              Bm                 C
Le temps des fêtes avec su'a tête une tuque d'hockey
                   Am           D                 G
Parce que j'voulais me faire passer pour Doug Harvey

Fill 1        C                  D           G
Vingt-trois décembre "Joyeux Noël Monsieur Côté",
       D/F#  Em D       F              C       G
"Salut ti-cul on se r'verra le sept janvier"

            Am                     C       G
J'ai sur le coeur un jour de l'An où mes parents
             Am                      C        D            Dsus4 D
Pensant bien faire, m'avaient habillé en communiant
               Am                D
Chez ma grand-mère c'était mon père
                Am          Bm           C
Qui s'déguisait en Père Noël pour faire accroire
                Am             D              G
Que les cadeaux ça venait pas toute de Dupuis Frères

                                                                     36
Fill 1        C                  D           G
Vingt-trois décembre "Joyeux Noël Monsieur Côté",
       D/F#  Em D       F              C       G
"Salut ti-cul on se r'verra le sept janvier"

                Am                  C           G
Ça m'tente des fois d'aller la voir pis d'y parler
          Am                      C          D
"Fée des Étoiles, j'peux-tu avoir un autre hockey?
           Am                   D
J'ai perdu l'mien, beau sans-dessein
             Am              Bm            C
J'l'ai échangé contre une photo où on voit rien
                 Am               D               G
Une fille de dos qui s'cache les fesses avec les mains"

Fill 1        C                  D           G
Vingt-trois décembre "Joyeux Noël Monsieur Côté",
       D/F#  Em D       F              C       G
"Salut ti-cul on se r'verra le sept janvier"

Fill 1        C                  D           G
Vingt-trois décembre "Joyeux Noël Monsieur Côté",
       D/F#  Em D       F              C <--------- Finale
"Salut ti-cul on se r'verra le sept janvier"




                                                             37
Ben E King - Stand By Me

Riff principal:
    D                                   Bm
    1 + 2 + 3 + 4 +   1 + 2 + 3 + 4 +   1 + 2 + 3 + 4 +   1 + 2 + 3 + 4 +
e|------------------|-----------------|-----------------|-----------------|
B|--7---x-7-----7---|-7---x-7-----7---|-3---x-3-----3---|-3---x-3-----3---|
G|o-7---x-7-----7---|-7---x-7-----7---|-4---x-4-----4---|-4---x-4-----4---|
D|o-7---x-7-----7---|-7---x-7-----7---|-4---x-4-----4---|-4---x-4-----4---|
A|--5---x-5-----0-4-|-5---x-5-----5-4-|-2---x-2-----0---|-2---x-2-----2-0-|
E|------------------|-----------------|-----------------|-----------------|

   G                 A                 D
   1 + 2 + 3 + 4 +   1 + 2 + 3 + 4 +   1 + 2 + 3 + 4 +   1 + 2 + 3 + 4 +
e|-----------------|-----------------|-----------------|------------------|
B|-3---x-3-----3---|-2---x-2-----2---|-7---x-7-----7---|-7---x-7-----7----|
G|-4---x-4-----4---|-2---x-2-----2---|-7---x-7-----7---|-7---x-7-----7---o|
D|-5---x-5-----5---|-2---x-2-----2---|-7---x-7-----7---|-7---x-7-----7---o|
A|---------------2-|-0---x-0-----0-4-|-5---x-5-----0-4-|-5---x-5-----0-4--|
E|-3---x-3-----3---|-----------------|-----------------|------------------|


Intro: riff principal 1 <- 1x

           D
When the night has come
Bm
   And the land is dark
         G           A            D
And the moon is the only light we see
       D
No, I won't be afraid
         Bm
   Oh, I won't be afraid
         G           A
Just as long as you stand
           D
Stand by me, so

                D
Darling darling stand by me
     Bm
Oh, stand by me
   G     A            D
Oh stand, stand by me, stand by me

        D
If the sky that we look upon
Bm
   Should tumble and fall
        G               A             D
Or the mountain should crumble to the sea
              D
I won't cry, I won't cry
       Bm
No, I won't shed a tear
          G          A
Just as long as you stand
            D
Stand by me

                                                                              38
                D
Darling darling stand by me
     Bm
Oh, stand by me
   G     A            D
Oh stand, stand by me, stand by me


(Riff principal 2x pendant un solo)

                D
Darling darling stand by me
     Bm
Oh, stand by me
   G               A            D
Oh stand, stand by me, stand by me


Whenever you're in trouble
          D                Bm ...
Won't you stand by me, oh stand by me




                                        39
Bob Dylan - Knockin' On Heaven's Door

Intro: (exemple seulement. Le but est d'alterner note haute/note basse en jouant les
autres sur les "up-beats", c'est-à-dire les "-") 4x

   G               D                 Am
    1 - + - 2 - + - 3 - + - 4 - + -   1 - + - 2 - + - 3 - + - 4 - + -
e|------------3-----------2---------|-----------0-------0---0---0---0--|
B|----------------2-----3-----3---3-|-------1-------1-----1---1---1----|
G|o-------0-----------2---------2---|---------2-----------2---2---2---o|
D|o-------------0---0---------------|-----2-------2---2---------------o|
A|------2---2-----------------------|-0--------------------------------|
E|--3-------------------------------|----------------------------------|

G         D                  Am
Mama take this badge off of me
G       D              Am
I can't use it anymore
G                D                        Am
It's getting dark, too dark for me to see
G            D                      Am
I feel I'm knockin on heaven's door

G             D                    Am
Knock, knock, knockin' on heaven's door           4x

G           D                  Am
Mama put my guns in the ground
G             D            Am
I can't shoot them anymore
G               D                    Am
That long black cloud is comin' down
G             D                      Am
I feel I'm knockin' on heaven's door

G             D                    Am
Knock, knock, knockin' on heaven's door           4x

G    D    Am
Oo - oo - oo - oo




                                                                                       40
Bob Walsh - House Of The Rising Sun

Intro:

   Am            C             D             F
   1 - - 2 - -   1 - - 2 - -   1 - - 2 - -   1 - - 2 - -
e|-------------|-------------|-------2-----|-------1-----|
B|-------1-----|-------1-----|-----3---3---|-----1---1---|
G|-----2---2---|-----0---0---|---2-------2-|---2-------2-|
D|---2-------2-|---2-------2-|-0-----------|-3-----------|
A|-0-----------|-3-----------|-------------|-------------|
E|-------------|-------------|-------------|-------------|

   Am            E             Am            E
   1 - - 2 - -   1 - - 2 - -   1 - - 2 - -   1 - - 2 - -
e|-------------|-------------|-------------|-------------|
B|-------1-----|-------------|-------1-----|-------------|
G|-----2---2---|-------1-----|-----2---2---|-------1-----|
D|---2-------2-|-----2---2---|---2-------2-|-----2---2---|
A|-0-----------|---2-------2-|-0-----------|---2-------2-|
E|-------------|-0-----------|-------------|-0-----------|


       Am   C       D     F
There is a house in New Orleans
     Am       C       E
They call the Rising Sun
     Am       C              D        F
It's been the ruin of many a poor boy
    Am    E        Am     E
And God I know I'm one


   Am       C         D     F
My mother, she was a tailor
    Am        C       E
She sewed my new blue jeans
   Am     C                    D     F
My daddy, daddy was a gamblin' man
Am      E       Am    E
Down in New Orleans


         Am  C       D             F
Now the only thing a gambler needs
      Am       C           E
Is a suitcase and a trunk
    Am    C        D         F
The only time he's satisfied
   Am        E          Am     E
Is when he's on a drunk


Solo:
Am C     D    F
Am C     E    E
Am C     D    F
Am E     Am   E



                                                             41
Am     C         D         F
Mother tell your children
       Am      C      E
Not to do what I have done
Am         C        D              F
Spend your lives in sin and misery
       Am           E        Am  E
In the House of the Rising Sun


Am       C       D         F
One foot on the platform
    Am     C       E
The other on the train
    Am         C         D           F
I believe I'm goin' back to New Orleans
   Am        E       Am      E
To wear my ball and chain


       Am    C      D     F
There is a house in New Orleans
     Am        C      E
They call the Rising Sun
     Am        C             D        F
It's been the ruin of many a poor boy
    Am     E       Am     E
And God I know I'm one
    Am     E       Am     E
Ooh God I know I'm one
          Am     E
I'll say God I know I am one

Am...




                                          42
Bobby McFerrin - Don't Worry Be Happy

Capo on 4th fret.      Chords are given relative to that capo.


Intro (and whole song):

G   Am   C   G
G   Am   C   G


G
Here is a little song I wrote
    Am
You might want to sing it note for note
       C       G
Don't worry be happy
G
In every life we have some trouble
Am
When you worry you make it double
       C         G
Don't worry, be happy

Don't worry, be happy now


G   Am                   C              G
         Don't worry         Be happy       Don't worry, be happy
G   Am                   C              G
         Don't worry         Be happy       Don't worry, be happy

G
Ain't got no place to lay your head
Am
Somebody came and took your bed
      C        G
Don't worry be happy
G
The landlord say your rent is late
Am
He may have to litigate
      C        G
Don't worry be happy

Look at me I'm happy

G   Am                   C              G
         Don't worry         Be happy       Here I give you my phone number

When you worry call me I make you happy
G   Am               C            G
       Don't worry     Be happy




                                                                              43
G
Ain't got no cash, ain't got no style
Am
Ain't got not girl to make you smile
           C       G
But don't worry be happy
G
Cause when you worry your face will frown
Am
And that will bring everybody down
         C         G
So don't worry, be happy

Don't worry, be happy now


G   Am                 C              G
         Don't worry       Be happy       Don't worry, be happy
G   Am                 C              G
         Don't worry       Be happy       Don't worry, be happy

Repeat and fade out...




                                                                  44
Brasse Camarade - Aline

      C    E    F    G
e|----0----0----1----3-----|
B|----1----0----1----0-----|
G|----0----1----2----0-----|
D|----2----2----3----0-----|
A|----3----2----3----2-----|
E|---------0----1----3-----|

Exemple de rythme pendant le refrain:

   1   -   +   2   -   +   3   -   +   4   -   +
e|-0---0-0-0-0-0---0---0---0---0-0-0-0-0---0---0---|
B|-1---1-1-1-1-1---1---1---1---1-1-1-1-1---1---1---|
G|-0---0-0-0-0-0---0---0---0---0-0-0-0-0---0---0---|
D|-2---2-2-2-2-2---2---2---2---2-2-2-2-2---2---2---|
A|-3---3-3-3-3-3---3---3---3---3-3-3-3-3---3---3---|
E|-------------------------------------------------|


Intro (et picking pendant les couplets):
   C                         E
   1   + 2   + 3   + 4   +   1   + 2   + 3   + 4   +
e|-------0-----------0-----|-------0-----------0-----|
B|-----1---1-------1---1---|-----0---0-------0---0---|
G|---0-------0---0-------0-|---1-------1---1-------1-|
D|-------------------------|-------------------------|
A|-3-----------3-----------|-------------------------|
E|-------------------------|-0-----------0-----------|

   F                         G
   1   + 2   + 3   + 4   +   1   + 2   + 3   + 4   +
e|-------1-----------1-----|-------3-----3-----------|
B|-----1---1-------1---1---|-----0---0---0-----------|
G|---2-------2---2-------2-|---0-------0-0-----------|
D|-------------------------|-------------0-----------|
A|-------------------------|-------------2-----------|
E|-1-----------1-----------|-3-----------3-----------|


              C        E
J'avais dessiné sur le sable
            F                G
Son doux visage qui me souriait
          C              E
Puis il a plu sur cette plage
          F                G
Dans cet orage elle a disparu

           C     E       F               G
Et j'ai crié, crié, Aline pour qu'elle revienne
             C       E      F               G
Et j'ai pleuré, pleuré, Oh, j'avais trop de peine




                                                         45
            C                  E
Je me suis assis auprès de son âme
                F            G
Mais la belle dame s'était enfuie
            C                E
Je l'ai cherchée sans plus y croire
              F              G
Et sans un espoir pour me guider

           C     E       F               G
Et j'ai crié, crié, Aline pour qu'elle revienne
             C       E      F               G
Et j'ai pleuré, pleuré, Oh, j'avais trop de peine


Solo: C   E   F   G   <--- 2x

           C                E
Je n'ai gardé que ce doux visage
           F                     G
Comme une épave sur le sable mouillé

           C     E       F               G
Et j'ai crié, crié, Aline pour qu'elle revienne
             C       E      F               G
Et j'ai pleuré, pleuré, Oh, j'avais trop de peine
           C     E       F               G
Et j'ai crié, crié, Aline pour qu'elle revienne
             C       E      F               G       (fade out...)
Et j'ai pleuré, pleuré, Oh, j'avais trop de peine




                                                                    46
Carla Bruni - Quelqu'un m'a dit

Capot première frette

Accords (et manière de les jouer pour le premier refrain)
    Bb              F               Gm              Ebsus2
    1 + 2 + 3 +     1 + 2 + 3 +     1 + 2 + 3 +     1 + 2 + 3 +
e|---------------|---------------|---------------|----------1----|
B|----------3----|----------1----|----------3----|------4-----4--|
G|o-----3-----3-o|o-----2-----2-o|o-----3-----3-o|o---3---3-----o|
D|o---3---3-----o|o---3---3-----o|o---5---5-----o|o-1-----------o|
A|--1------------|---------------|---------------|---------------|
E|---------------|--1------------|--3------------|---------------|

Intro : Bb 4x

                  Bb                       F
On me dit que nos vies ne valent pas grand chose
                       Gm                     Ebsus2
Elles passent en un instant comme fanent les roses
                 Bb                        F
On me dit que le temps qui glisse est un salaud
              Gm                        Ebsus2
Que de nos chagrins il s'en fait des manteaux


                       Bb F       Gm         Ebsus2
Pourtant quelqu'un m'a dit que tu m'aimais encore
                         Bb F       Gm        Ebsus2
C'est quelqu'un qui m'a dit que tu m'aimais encore
                    Bb    F      Gm      Ebsus2
Serait-ce possible alors


Bb      F       Gm      Ebsus2


                     Bb                   F
On me dit que le destin se moque bien de nous
                     Gm                        Ebsus2
Qu'il ne nous donne rien et qu'il nous promet tout
               Bb                    F
Parait qu'le bonheur est à portée de main
                  Gm                    Ebsus2
Alors on tend la main et on se retrouve fou


                       Bb F       Gm         Ebsus2
Pourtant quelqu'un m'a dit que tu m'aimais encore
                         Bb F       Gm        Ebsus2
C'est quelqu'un qui m'a dit que tu m'aimais encore
                    Bb    F      Gm      Ebsus2
Serait-ce possible alors
                    Bb    F      Gm      Ebsus2
Serait-ce possible alors




                                                                     47
                         Bb                      F
Mais qui est-ce qui m'a dit que toujours tu m'aimais
                  Gm                        Ebsus2
Je ne me souviens plus c'était tard dans la nuit
                     Bb                            F
J'entends encore la voix, mais je ne vois plus les traits
                        Gm                                 Ebsus2
"Il vous aime, c'est secret, lui dites pas que j'vous l'ai dit"


                       Bb F      Gm         Ebsus2
Tu vois quelqu'un m'a dit que tu m'aimais encore
                     Bb F       Gm         Ebsus2
Me l'a t'on vraiment dit que tu m'aimais encore
                    Bb    F      Gm      Ebsus2
Serait-ce possible alors


Bb      F       Gm       Ebsus2

Solo:
Bb      F       Gm       Ebsus2
Bb      F       Gm       Ebsus2
Bb      F       Gm       Ebsus2
Bb      F       Gm       Ebsus2


                   Bb                      F
On me dit que nos vies ne valent pas grand chose
                       Gm                    Ebsus2
Elles passent en un instant comme fanent les roses
                  Bb                       F
On me dit que le temps qui glisse est un salaud
               Gm                         Ebsus2
Que de nos tristesses il s'en fait des manteaux


                            Bb F        Gm         Ebsus2
Pourtant quelqu'un m'a      dit que tu m'aimais encore
                         Bb F        Gm         Ebsus2
C'est quelqu'un qui m'a dit que tu m'aimais encore
                    Bb    F       Gm       Ebsus2
Serait-ce possible alors


Bb      F       Gm       Ebsus2   Bb




                                                                    48
Cat Stevens - Wild World

      Am    D7    G    Cmaj7    F     Dm    E     G7    C     D
e|----0-----2-----3-----3-0-----1-----1-----0-----1-----0-----2----|
B|----1-----1-----0-----5-0-----1-----3-----0-----0-----1-----3----|
G|----2-----2-----0-----4-0-----2-----2-----1-----0-----0-----2----|
D|----2-----0-----0-----5-2-----3-----0-----2-----0-----2-----0----|
A|----0-----------2-----3-3-----3-----------2-----2-----3----------|
E|----------------3-------------1-----------0-----3----------------|


Exemple de rythme:
   Am
   1 - + - 2 - + - 3 - + - 4 - + -
e|---------0---------------0-------|
B|---------1---1-1---------1---1-1-|
G|---------2---2-2---------2---2-2-|
D|-2---2---2---2-2-2---2---2---2-2-|
A|-0---0---0-------0---0---0-------|
E|---------------------------------|


       Am    D7    G    Cmaj7        F      Dm   E
Intro: lalala...


Am                  D7              G
  Now that i've lost every thing to you
            Cmaj7                 F
You say you wanna start something new
         Dm                       E
And it's breaking my heart you're leaving

Baby I'm grievin'
Am                     D7             G
   But if you want to leave take good care
                 Cmaj7                     F
Hope you have a lot of nice things to wear
            Dm                      E        G7
But then a lot of nice things turn bad out there

C    G                 F
  Oh baby baby it's a wild   world
G                    F              C
  It's hard to get by just   upon a smile
C    G                 F
  Oh baby baby it's a wild   world
G                  F                C           D    E
  I'll always remember you   like a child, girl

Am                     D7                        G
  You know i've seen a lot of what the world can do
         Cmaj7                F
And it's breaking my heart in two
          Dm                    E
Because I never want ot see you sad girl




                                                                       49
Don't be a bad girl
Am                     D7             G
   But if you want to leave take good care
                 Cmaj7                    F
Hope you make a lot of nice friends out there
            Dm                          E     G7
But just remember there's a lot of bad and beware, beware

C    G                 F
  Oh baby baby it's a wild        world
G                    F                   C
  It's hard to get by just        upon a smile
C    G                 F
  Oh baby baby it's a wild        world
G                  F                     C           D   E
  I'll always remember you        like a child, girl

Am     D7   G   Cmaj7   F   Dm7

E
Baby I love you
Am                    D7              G
   But if you want to leave take good care
                 C                        F
Hope you make a lot of nice friends out there
            Dm                          E     G7
But just remember there's a lot of bad and beware, beware

C       G                 F
     Oh baby baby it's a wild     world
G                       F                C
     It's hard to get by just     upon a smile
C       G                 F
     Oh baby baby it's a wild     world
G                     F                  C           D   E
     I'll always remember you     like a child, girl
C       G                 F
     Oh baby baby it's a wild     world
G                       F                C
     It's hard to get by just     upon a smile
C       G                 F
     Oh baby baby it's a wild     world
G                     F                  C <- final
     I'll always remember you     like a child, girl




                                                             50
Cayouche - Tu m'as flushé

      C     G     F
e|----0-----3-----1----
B|----1-----0-----1----
G|----0-----0-----2----
D|----2-----0-----3----
A|----3-----2-----3----
E|----------3-----1----


Intro:
              G                                 C
      + 4 +   1 - + - 2 - + - 3 - + - 4 - + -   1 - + - 2 - + - 3 - + - 4 - + -
e|----------|-----3-3-------------3-3---------|-----0-0-----0-------0-0-----0---|
B|----------|-----0-0-------------0-0---------|-----1-1-----1-------1-1-----1---|
G|----------|-----0-0---------0---0-0---------|-----0-0-----0-------0-0-----0---|
D|----------|-----0-0-----0----------h2---0---|-----2-2-----2-------2-2-----2---|
A|----3-2-0-|---------0h2---------------------|-3---------------3---------------|
E|----------|-3-------------------------------|---------3---------------3-------|
                                               |_______________________________|
                                                         beat principal

                             G
J'ai eu d'la misère avec les femmes
                                       C
Ça prend pas grand chose pour faire un drame
                          G
A c't'heure ça m'fait pus rien
                          C
J'ai la situation dans ma main


         F                            C
Tu m'as tout l'temps dit que tu m'aimerais
    G                        C
Ben moi j'avais tout l'temps peur
       F                                   C
Je l'savais qu'un bon jour que tu m'laisserais
         G                              C
Tu m'as flushé dans la toilette de ton coeur


F    C    G    C
F    C    G    C

                                    G
J'étais tout l'temps parti avec mes chums
                              C
Pour faire la musique pis du fun
                            G
Ben là t'as commencé à chialer
                          C
Tu m'as même donné la diarrée




                                                                                    51
         F                            C
Tu m'as tout l'temps dit que tu m'aimerais
    G                        C
Ben moi j'avais tout l'temps peur
       F                                   C
Je l'savais qu'un bon jour que tu m'laisserais
         G                              C
Tu m'as flushé dans la toilette de ton coeur


F    C    G    C
F    C    G    C


                                         G
Tu m'disais que j'étais tout l'temps parti
                                     C
Que j'mettais trop d'miettes dans le lit
                          G
Que j'levais jamais le couvert
                                           C
So, tu m'as flushé dans la toilette de ton coeur


         F                            C
Tu m'as tout l'temps dit que tu m'aimerais
    G                        C
Ben moi j'avais tout l'temps peur
       F                                   C
Je l'savais qu'un bon jour que tu m'laisserais
         G                              C
Tu m'as flushé dans la toilette de ton coeur

         F                            C
Tu m'as tout l'temps dit que tu m'aimerais
    G                        C
Ben moi j'avais tout l'temps peur
       F                                   C
Je l'savais qu'un bon jour que tu m'laisserais
         G                              C
Tu m'as flushé dans la toilette de ton coeur
         G                              C          C
Tu m'as flushé dans la toilette de ton coeur




                                                       52
Charles Aznavour - Hier Encore

      Gm    C7    F    BbM7   A7    Dm    G    Dm7
e|----3-----0-----1-----1-----------1-----3-----5----
B|----3-----1-----1-----3-----5-----3-----3-----6----
G|----3-----3-----2-----2-----6-----2-----4-----5----
D|----5-----2-----3-----3-----5-----0-----5-----7----
A|----5-----3-----3-----1-----------------5-----5----
E|----3-----------1-----------5-----------3----------


Intro:
Gm       C7     F       BbM7    Gm      A7         Dm   A7


           Gm                  C7
Hier encore, j'avais vingt ans
                     F                    BbM7
Je caressais le temps et jouais de la vie
                        Gm                     A7
Comme on joue de l'amour et je vivais la nuit
                           Dm
Sans compter sur mes jours qui fuyaient dans le temps

                         Gm                        C7
J'ai fait tant de projets qui sont restés en l'air
                         F                    BbM7
J'ai fondé tant d'espoirs qui se sont envolés
                  Gm                   A7
Que je reste perdu ne sachant où aller
                         Dm
Les yeux cherchant le ciel mais le coeur mis en terre

           Gm                  C7
Hier encore, j'avais vingt ans
                      F                     BbM7
Je gaspillais le temps en croyant l'arrêter
                 Gm                 A7
Et pour le retenir même le devancer
                        Dm
Je n'ai fait que courir et me suis essoufflé

                 Gm                   C7
Ignorant le passé conjuguant au futur
                       F                   BbM7
Je précédais de "moi" toutes conversations
                    Gm                    A7
Et donnais mon avis que je voulais le bon
                         Dm
Pour critiquer le monde avec désinvolture

           Gm                  C7
Hier encore, j'avais vingt ans
                         F                   BbM7
Mais j'ai perdu mon temps à faire des folies
                           Gm                      A7
Qui ne me laissent au fond rien de vraiment précis
                         Dm
Que quelques rides au front et la peur de l'ennui


                                                             53
                          Gm                    C7
Car mes amours sont mortes avant que d'exister
                    F                      BbM7
Mes amis sont partis et ne reviendront pas
                       Gm                    A7
Par ma faute j'ai fait le vide autour de moi
                    Dm
Et j'ai gâché ma vie et mes jeunes années

                      Gm                     A7
Du meilleur et du pire en jetant le meilleur
                      Dm7                       G
J'ai figé mes sourires et j'ai glacé mes pleurs
                     Gm          Dm
Où sont-ils à présent, à présent

A7            Dm   Gm   Dm   Gm   Dm
Mes vingt ans...




                                                     54
Charlie Parker - Donna Lee

Shuffle beat

  Ab6                  F7                Bb7
   1 + 2 + 3   + 4 +   1 + 2 + 3 + 4 +    1   + 2 + 3 + 4 +   1 + 2 + 3 + 4 +
e|-------------------|------------------|-------------------|-----------------|
B|---------8-9-8-6---|------------------|-------------------|-----------------|
G|-----------------9-|-8-6--------------|-------------------|-----------------|
D|-------------------|-----10-8-7-------|---6-----------6-10|-----------------|
A|-------------------|--------------6-8-|-9---9-8-6---8-----|10-8---------7-5-|
E|-------------------|------------8-----|-----------10------|-----------------|

  Bbm7              Eb7              Abmaj7             Ebm7     D7
   1 + 2 + 3 + 4 +   1 + 2 + 3 + 4 +    1 + 2 + 3 + 4 +   1 + 2 + 3 + 4 +
e|-----------------|------------------|-----------------|-----------------|
B|-----------------|------------------|-----------------|-------6---------|
G|---------------8-|-6----------------|-----------------|-----6---9-5-----|
D|-----------6-10--|-----6-10-9-------|-------8-6-------|---8-------------|
A|-6-------8-------|---8--------7-6---|---6-10------6-8-|-9---------------|
E|---5-6-9---------|----------------9-|-8---------------|-----------------|

 Dbmaj7             Dbm7    Gb9      Abmaj7              F7
   1 + 2 + 3 + 4 +   1 + 2 + 3 + 4 +   1 + 2 + 3 + 4 +   1 + 2 + 3   + 4 +
e|-----------------|-----------------|-----------------|-------------------|
B|-----------------|---------7-5-----|-----------------|-------6-7-9-7-6---|
G|-8---------6-5---|-8-6---------8-6-|-5-5-6-7-8-6-5---|---5-8-----------8-|
D|---------------8-|-----------------|---------------8-|-7-----------------|
A|-----------------|-----------------|-----------------|-------------------|
E|-----------------|-----------------|-----------------|-------------------|

  Bb7              Bb7b5                Bbm7               Eb7
   1 + 2 + 3 + 4 +   1   + 2 + 3 + 4 +   1 + 2 + 3 + 4 +    1 + 2 + 3   + 4 +
e|-----------------|-------------------|------------------|-------------------|
B|-----------------|-------------------|------------------|-----------7-------|
G|-7-5-------------|-------------------|-8-6--------------|-----6-8-9---9-8-6-|
D|-----9-7-8-6-----|-------------------|-------6-10-8---6-|---8---------------|
A|---------------6-|10-9-8-7-----------|-----8--------8---|-10----------------|
E|-------------8---|-------------------|------------------|-------------------|

 Abmaj7                F7                Bb7
   1 + 2 + 3   + 4 +   1 + 2 + 3 + 4 +    1   + 2 + 3 + 4 +   1 + 2 + 3 + 4 +
e|-------------------|------------------|-------------------|-----------------|
B|---------8-9-8-6---|------------------|-------------------|-----------------|
G|-5---------------9-|-8-6--------------|-------------------|-----------------|
D|-------------------|-----10-8-7-------|---6-----------6-10|-------------5---|
A|-------------------|--------------6-8-|-9---9-8-6---8-----|10-8-----------8-|
E|-------------------|------------8-----|-----------10------|-----------------|

   C7              Gm7b5     C7         Fm6              C7#5#9
   1 + 2 + 3 + 4 +   1 + 2 + 3   + 4 +   1 + 2 + 3 + 4 +   1 + 2 + 3 + 4 +
e|-----------------|-------------------|-----------------|-----------------|
B|-----------------|-------------------|-----------------|-----------------|
G|-----------------|-6-6-5-------------|-----------------|-----------------|
D|-----5-6-8-6-5---|-------8-6-8-6-5---|-----------------|---------------5-|
A|-7-8-----------8-|-----------------7-|-8---------------|-----------------|
E|-----------------|-------------------|-----------------|-----------------|




                                                                                  55
  Fm6              C7#5#9             Fm6                Abdim
   1 + 2 + 3 + 4 +   1 + 2 + 3 + 4 +   1   + 2 + 3 + 4 +   1 + 2 + 3 + 4 +
e|-----------------|-----------------|-------------------|-----------------|
B|---------------4-|-5-4-5-4---------|-------------------|-----------8-6---|
G|-5-4-5-6-7-6-7---|---------7-6-5-3-|-4-----------------|---------------9-|
D|-----------------|-----------------|-6-8-6-5-6-8-6-5---|-------6-9-------|
A|-----------------|-----------------|-----------------8-|---5-8-----------|
E|-----------------|-----------------|-------------------|-7---------------|

 Abmaj7     F7       Bbm7     Eb7        Ab6
   1 + 2 + 3 + 4 +    1 + 2 + 3 + 4 +     1 + 2 + 3 + 4 +   1 + 2 + 3 + 4 +
e|------------------|-------------------|-----------------|-----------------|
B|------------------|-------------------|-----------------|-----------------|
G|-8-6--------------|-------------------|-----------------|-----------------|
D|-----10-8-7-------|-----6-10-8-6------|-6---------------|-----------------|
A|------------9-8-6-|---8----------10-6-|-----------------|-----------------|
E|------------------|-9-----------------|-----------------|-----------------|




                                                                                56
Claude Dubois - Comme Un Million De Gens

Intro:
C        Am     Dm   D7   G


C                           Am                           Dm
  Il est né un jour de printemps il était le septième enfant
        D7           G                                C
D'une famille d'ouvriers n'ayant pas peur de travailler
                     Am                           Dm
Comme un million de gens il a grandi dans un quartier
         D7               G                                  C
Où il fallait pour subsister serrer les dents les poings fermés


          D7               G
Autour de lui y'avait plus petits et plus grands
C            D7               G
  Des hommes semblables en dedans


C                             Am                        Dm
  En mangeant un morceau de pain il avait vu que le voisin
           D7               G                              C
Avait quelque chose sur le sien qu'il aurait bien aimé goûter
                     Am                   Dm
Comme un million de gens il a cessé d'étudier
          D7                   G                              C
Car il fallait pour mieux manger serrer les dents et travailler


          D7               G
Autour de lui y'avait plus petits et plus grands
C            D7               G
  Des hommes semblables en dedans


C                           Am                       Dm
  Puis un jour il a rencontré une femme qu'il a mariée
          D7            G                               C
Sans pour cela se demander si du moins il pouvait l'aimer
                     Am                                   Dm
Comme un million de gens ils ont vieilli dans leur quartier
             D7              G                                   C
Et leurs enfants pour subsister serrent des dents les poings fermés


            D7                G
Mais autour d'eux y'aura plus petits et plus grands
C            D7               G
  Des hommes semblables en dedans


C                      Am                            Dm
  Comme un million de gens qui pourraient se rassembler
               D7                G                            C
Pour être beaucoup moins exploitées et beaucoup plus communiquer



                                                                      57
         D7             G                 C        D7            G
Se distinguer, se raisonner, s'émanciper, se libérer, s'administrer
C         D7            G               C       D7         G
  Se décaver, s'équilibrer, s'évaporer, s'évoluer, se posséder
C             D7                G
  Mais autour d'eux y'aura plus petits et plus grands
C            D7               G
  Des hommes semblables en dedans


C                      Am                         Dm
  Comme un million de gens, comme un million de gens
      D7             G                          C
Comme un million de gens, comme un million de gens
                       C/B Am                          G Dm
Comme toi comme moi bébé,     comme toi comme moi bébé
                D7                   G
Comme toi comme moi comme lui comme l'autre comme toi bébé
C         Am
Fadelididou...

   1 - - + - - 2 - - + - - 3 - - + - - 4 - - + - -   1 - - + - - 2 - - + - - 3
e|-------------------------------------------------|-------------------10-------------
B|-------------------------7-----------10----------|-8-----8-----10/12----12----10----
G|-7-----------9-----------------------------------|-------------------------------12-
D|-------------------------------------------------|----------------------------------
A|-------------------------------------------------|----------------------------------
E|-------------------------------------------------|----------------------------------

C <- final




                                                                                         58
Claude Dubois - En voyage

      Dm    A7   Ab7    Gm   DM7 F#dim    Fm   Bb7    Eb    C7   Ebm    G7
e|----5-----------------3-----5-----5-----1-----------6-----------6----------
B|----6-----5-----4-----3-----7-----4-----1-----6-----8-----8-----7-----3----
G|----7-----6-----5-----3-----6-----5-----1-----7-----8-----9-----8-----4----
D|----7-----5-----4-----5-----7-----4-----3-----6-----8-----8-----8-----3----
A|----5-----------------5-----5-----------3-----------6-----------6----------
E|----------5-----4-----3-----------------1-----6-----------8-----------3----


Intro:
Dm       A7       Dm       A7
Dm       A7       Dm       A7


Dm      A7      Dm         Ab7     Gm              A7
Fadelideliou...


Dm                A7      Dm                  A7
Comme tu voudras,         comme bon te sembleras
Dm                A7      Dm                  A7
Comme tu voudras,         comme bon te sembleras


Dm      A7      Dm         Ab7     Gm              A7
Fadelideliou...


Dm      A7   Dm    Ab7       Gm           A7
Tu pars en voyage,     tu déménages quelque part
Dm      A7   Dm    Ab7       Gm            A7
Tu pars en voyage,     je déménage n'importe où


DM7                   F#dim         A
  N'importe où,   n'importe quand,     dis-moi où comment
DM7               F#dim           A
  Comment faire   pour te plaire,     dis-moi où sur terre
DM7               F#dim             A

DM7               F#dim            A

DM7                  F#dim         A
    N'importe où, n'importe quand,     qu'importe l'argent
DM7              F#dim          A
  Comment faire pour te plaire,      dis-moi où sur terre


Fm                Bb               Eb              C7
Fm                Bb               Eb              C7
Fm                Bb               Eb              C7
Fm                Bb               Ebm     Ab7     Dm        G7


Dm                A7      Dm                  A7
Comme tu voudras,         comme bon te sembleras
Dm                A7      Dm                  A7
Comme tu voudras,         comme bon te sembleras

                                                                                59
Dm      A7      Dm        Ab7        Gm                A7
Fadelideliou...
Dm      A7      Dm        Ab7        Gm                A7
Fadelideliou...


Dm              A7                    Dm              A7
Fadelideliou,   twipdelidelidedou,    fadelideliou,   twipdelidelidedou,
Dm              A7                    Dm
Fadelideliou,   twipdelidelidedou,    wo!
Dm              A7                    Dm              A7
Fadelideliou,   twipdelidelidedou,    fadelideliou,   twipdelidelidedou,
Dm              A7                    Dm
Fadelideliou,   twipdelidelidedou,    wo!
Dm              A7                    Dm              A7
Fadelideliou,   twipdelidelidedou,    fadelideliou,   twipdelidelidedou,
Dm              A7                    Dm
Fadelideliou,   twipdelidelidedou,    wo!




                                                                           60
Claude Dubois - Femme De Rêve

En sifflant:
G       F#7     Bm       Bm7
G       F#7     Bm       Bm7
G       F#7     Bm       Bm7
G       F#7     Bm       Bm7


Em            A   Em          A
   Femmes de rêve, femmes d'espoir heureux
Em                 A     Em              A
   Comment puis-je faire, pour être plus près de vous
G             F#7     Bm Em
   En restant li..........bre


G                     F#7              Bm     Bm7
  Va voir au bout des rues, va dans la ville
G                     F#7                Bm    Bm7
  Viens voir de près ces femmes multicolores
G                     F#7                Bm    Bm7
  Comme les fleurs ne sont que quelques-unes
G                   F#7               Bm     Bm7
  Solitaire dans la foule comme en forêt


Em            A   Em          A
   Femmes de rêve, femmes d'espoir heureux
Em                 A     Em              A
   Comment puis-je faire, pour être plus près de vous
G             F#7     Bm Em
   En restant li..........bre


G                      F#7                Bm      Bm7
  Va voir au bout des rues, regarde dans ta vie
G                  F#7               Bm      Bm7
  Va voir de près ces femmes multicolores
G                      F#7               Bm     Bm7
  Comme les fleurs ne sont que quelques-unes
G                   F#7               Bm      Bm7
  Solitaire dans la foule comme en forêt


Em            A   Em          A
   Femmes de rêve, femmes d'espoir heureux
Em                 A     Em              A
   Comment puis-je faire, pour être plus près de vous
G             F#7     Bm Em
   En restant li..........bre


En sifflant:
G       F#7     Bm       Bm7

Repeat et fade out...




                                                        61
Colocs - Julie

    G   Am C    D   G7 Ab7 Em A     Gb
e|--3---5---3---5---3-------0---0---2--|
B|--3---5---5---7---6---4---0---2---2--|
G|--4---5---5---7---4---5---0---2---3--|
D|--5---7---5---7---3---4---2---2---4--|
A|--5---7---3---5---5---x---2---0---4--|
E|--3---5-----------3---4---0-------2--|

Ça commence avec des "dip-dabip-dibop-dibo"

             G       Am    C      D    G         Am      C     D
J'l'ai rencontré au dépanneur, A s'achetait une grosse liqueur
               G                  Am       C                      D
J'ai dit "pourquoi du Pepsi?" A dit c'est parce j'm'appelle Julie
           G      Am   C     D
J'ai dit "ah oui, ah bon"
         G     Am    C   D           G        Am      C     D
A m'a demandé si c'était la première fois que j'rencontrais
       G                       Am                 C                   D
Une Julie aux cheveux noirs, j'avoue qu'c'est la première fois à soir
     G
A dit "Julie ça va mieux pour les blondes j'trouve." Pantoute!

G                 G7                       C            Ab7
Wow! Wow! Wow! Ma p'tite julie, si t'étais pas si jeune, j't'aurais pris
G                  Em               A        D                G
Dis-toé que j't'un gars patient pis viens me r'voir quand t'aura vingt ans

G     Am     C     D   (4x)
Dip-dabop...

       G         Am C D               G      Am   C     D
On est allé au cinéma pour voir un film de Coppola
               G                 Am       C               D
A dit "J'aime mieux les Fellini pis Marcello Mastroiani."
         G     Am     C     D
J'ai dit "Ben ça va mal"
           G       Am     C D       G     Am    C     D
On est allé voir son papa, le P.D.G. d'Coca-Cola
             G                Am                    C             D
Y'a dit "Voyons ma p'tite Julie, t'es prends ben vieux tes p'tits amis."
         G     Am       C               D
J'ai dit "Ben toé mon vieux tabarnouche, hein"

G                 G7                       C            Ab7
Wow! Wow! Wow! Ma p'tite julie, si t'étais pas si jeune, j't'aurais pris
G                  Em               A        D                G
Dis-toé que j't'un gars patient pis viens me r'voir quand t'aura vingt ans

G     Am     C     D   (4x)
Dip-dabop...




                                                                             62
           G          Am       C      D      G        Am   C    D
Et pis un beau soir de printemps, Julie pleurait sur le divan
                 G                 Am            C            D
Ses larmes ont coulées jusqu'à moé si bien que j'me suis réveillé
             G              Am             C       D
J'ai dit "Voyons Julie là, qu'c'est qu'y a?"
         G         Am     C      D             G      Am   C     D
Elle a nagé jusqu'à mon lit, j'ai cru qu'elle allait se noyer
           G             Am              C               D
A m'dit "Écoute mon chéri, tu sais je ne veux pas te quitter"
               G         Am         C               D
J'ai dit "Beh oui, beh non, beh oui beh oui, beh non"

G                 G7                       C            Ab7
Wow! Wow! Wow! Ma p'tite julie, si t'étais pas si jeune, j't'aurais pris
G                  Em               A        D                G
Dis-toé que j't'un gars patient pis viens me r'voir quand t'aura vingt ans

G     Am     C     D   (4x)
Dip-dabop...

            G     Am       C   D           G      Am       C      D
Aujourd'hui Julie a vingt ans, elle est mariée depuis deux ans
        G                  Am                   C             D
Avec un gars d'Chicoutimi, j'vous dit qu'y a un maudit bel accent
        G     Am   C             D
J'ai dit "Teindu? Teindu quoi?"
            G           Am         C  D            G          Am C     D
Elle a fait teindre ses beaux cheveux, teindus platine comme Marylin
            G                 Am         C                  D
On s'est parlé une couple de fois au téléphone, c'était ben l'fun
               G
mais on s'voit pu. On s'voit pu pantoute.


G                 G7                       C                          Ab7
Wow! Wow! Wow! Ma p'tite julie, moi j'suis resté jeune, mais toi t'as mal vieilli
G                  Em                A       D                G
Dis-toé que j't'un gars patient pis viens me r'voir quand t'aura cent ans
         A                D        G
Viens me r'voir quand t'auras cent ans

Finale: G    Gb    G




                                                                                    63
Colocs - Juste une p'tite nuite

      Em    Am    C     B
e|----7-----5-----8-----7----
B|----8-----5-----8-----7----
G|----9-----5-----9-----8----
D|----9-----7-----10----9----
A|----7-----7-----10----9----
E|----------5-----8-----7----


Shuffle beat des double-croches

Intro
   Em
   1 - + - 2 - + - 3 - + - 4 - + -   1 - + - 2 - + - 3 - + - 4 - + -
e|-----7-------7-------7-----7-7---|-----7-------7-------x-----x-x---|
B|-----8-------8-------8-----8-8---|-----8-------8-------x-----x-x---|
G|-----9-------9-------9-----9-9---|-----9-------9-------x-----x-x---|
D|-----9-------9-------9-----9-9---|-----9-------9-------x-----x-x---|
A|-7-------7-------7-------7-------|-7-------------------------------|
E|---------------------------------|---------7-------5-----3---3-3---|
  ^_______________________________^
           rythme de base


Intro

Rythme de base Em ==> 8x

Em
Je sais ben que t'étais pas faite pour moé

Mais je m'ennuie pareil as-tu compris

Je m'ennuie de tes cuisses je m'ennuie de tes seins

Je m'ennuie de tes yeux t'ennuies-tu des miens


Am
Je sais ben je sais ben dis-moé le pu
                Em
J'étais pas fait pour toé non plus
                 C
T'es faite comme un ordinateur
         B                            Em
Sorry no compute que cé que je fais astheure

Am   B   Em

Em
Câlisse reste donc juste une petite nuit

Pis on va s'aimer jusqu'au matin

T'es obligée de partir je sais ben

Mais t'es pas obligée de partir tout le suite


                                                                         64
Am
On va se rouler un gros pétard
             Em
On va se péter la fiole en deux
                C
Tu vas me dire André y'est trop tard
             B            Em
On peut être copain si tu veux

Am   B

Em   ==> 8x

Am
On va se rouler un gros pétard
             Em
On va se péter la fiole en deux
                C
Tu vas me dire André y'est trop tard
             B            Em
On peut être copain si tu veux

Am   B   Em   Am   B   Em

Em
Pis ça je le sais ça va me faire chier

Si c'est rien que copains j'aime mieux tout seul

Mais je t'orgueilleux quand je t'avec toé

Ça fait que je vas fermer ma yeule


Am
On va faire l'amour en silence
               Em
Comme des amants un peu blasés
            C
Avant de me donner mes vacances
            B                     Em
Fais-moé accroire que chu pas clairé

Em jusqu'à la fin...




                                                   65
Counting Crows - Mr. Jones

      Am    F     Dm    G     C
e|----0-----1-----1-----3-----0----|
B|----1-----1-----3-----0-----1----|
G|----2-----2-----2-----0-----0----|
D|----2-----3-----0-----0-----2----|
A|----0-----3-----------2-----3----|
E|----------1-----------3----------|

Intro:

   1 - + - 2 - + - 3 - + - 4 - + -   1 - + - 2 - + - 3 - + - 4 - + -
e|-0---0---0-0---1-----1---1-1-x-1-|-----1---1-1---3-----3---3-3---0-|
B|-1---1---1-1---1-----1---1-1-x-3-|-----3---3-3---0-----0---0-0---1-|
G|-2---2---2-2---2-----2---2-2-x-2-|-----2---2-2---0-----0---0-0---2-|
D|-2---2---2-2---3-----3---3-3-x-0-|-----0---0-0---0-----0---0-0---2-|
A|-0---0---0-0---3-----3---3-3-x---|---------------2-----2---2-2---0-|
E|---------------1-----1---1-1-x---|---------------3-----3---3-3-x---|

Shalalalalala yeah...

   1 - + - 2 - + - 3 - + - 4 - + -   1 - + - 2 - + - 3 - + - 4 - + -
e|-0---0---0-0---1-----1---1-1---3-|-----3-----3-3-------3-----3-3---|
B|-1---1---1-1---1-----1---1-1---0-|-----0-----0-0-------0-----0-0---|
G|-2---2---2-2---2-----2---2-2---0-|-----0-----0-0-------0-----0-0---|
D|-2---2---2-2---3-----3---3-3---0-|-----0-----0-0-------0-----0-0---|
A|-0---0---0-0---3-----3---3-3---2-|-----2-----2-2-------2-----2-2---|
E|---------------1-----1---1-1-x-3-|-----3-----3-3---3---3-----3-3---|


Am                          F       Dm              G
   I was down at the New Amsterdam staring at this yellow-haired girl
      Am                        F                G
Mr. Jones strikes up a conversation with this black-haired flamenco dancer
   Am                   F                Dm                G
She dances while his father plays guitar, she's suddenly beautiful
       Am                 F       G
We all want something beautiful, man I wish I was beautiful
          Am                  F                     Dm          G
So come dance this silence down through the morning, shalalalalalalala
Am         F     G
 yeah...


Am        F Dm                      G
   Cut Maria! Show me some of them Spanish dances
Am            F                G
   Pass me a bottle, Mr. Jones
Am              F Dm                      G
   Believe in me,     help me believe in anything
       Am              F            G
Cause I want to be someone who believes




                                                                             66
C      F          G
  Mr. Jones and me tell each other fairy tales
C                          F              G
  Stare at the beautiful women: "She's looking at you. Ah, no, no, she's looking at me."
C                   F          G
  Smiling in the bright lights coming through in stereo
     C                F  G
When everybody loves you, you can never be lonely


Am                F      Dm                  G
I will paint my picture, paint myself in blue and red and black and gray
Am                        F                  G
   All of the beautiful colors are very very meaningful
     Am               F      Dm            G
Grey is my favorite color, I felt so symbolic yesterday
Am              F               G
   If I knew Picasso, I would buy myself a gray guitar and play


C      F          G
  Mr. Jones and me look into the future
C                          F              G
  Stare at the beautiful women: "She's looking at you.
  Uh, I don't think so. She's looking at me."
C                   F        G
  Standing in the spotlight, I bought myself a gray guitar
     C          F       G
When everybody loves me, I will never be lonely

Am                  F
   I will never be lonely,
                Am           G
 so I am never gonna be lonely
Am                      F
   I want to be a lion, everybody wants to pass as cats
Am                                     G
   We all want to be big big stars, but we got different reasons for that
Am                         F
   Believe in me because I don't believe in anything
      Am                            G
and I want to be someone to believe, to believe, to believe, yeah


C     F           G
  Mr. Jones and me stumbling through the barrio
        C                         F            G
Yeah we stare at the beautiful women: "She's perfect for you,
  Man, there's got to be somebody for me."
C                    F              G
  I want to be Bob Dylan, Mr. Jones wishes he was someone just a little more funky
C                      F        G
  When everybody loves you, ah son, that's just about as funky as you can be
C     F           G
  Mr. Jones and me staring at the video
        C                F                 G
When I look at the television, I want to see me staring right back at me
C                    F                  G
  We all want to be big stars, but we don't know why and we don't know how
          C              F                   G
But when everybody loves me, I'm going to be just about as happy as can be
                                                                                           67
C       F            G
    Mr. Jones and me, we're gonna be big stars...




                                                    68
Cowboys Fringants - Banlieue

C#                        Fm
  Dans mon quartier d’banlieue
G#m                          A#7                    D#m
    Y’avait d’l’action en torieu, quand on était morveux
                              B
On jouait à'c’achette su'é’ terrains des voisins
G#m                               A#7
    J’restais caché pas mal longtemps
                                 D#
Dans’ haie avec la p’tite Chartrand...
                     Gm
Quand y faisait pas beau
A#m                           C7                                Fm
    Y’avait l’sous-sol à Guilbeault, on allait jouer au Colleco
                             C#
Les p’tits gars on capotait su’é G.I. Joe’s
A#m                        C7                              F
  Pis sur la soeur à Lavallée, parce qu’elle en avait des gros


                              Bb
Et quand l’soleil sortait d’derrière les nuages
C                       F
   Ça s’animait partout dans le voisinage
Dm                               Gm
   On entendait les slap-shots su’é portes de garages
C                          C7
   Pis gueuler la mère à Lepage


D#                        Gm
   L’quartier s’est dispersé
A#m                  C7
     On a vieilli... on s’est fait des nouveaux amis
Fm                                      C#
    Y’a eu les premières blondes mais c’tait pas trop « steady »
A#m                             C7                F
    C’est Dédé qui a été l’premier à avoir son permis
                Am
Dans son Volkwagen
Cm                              D7
   On écoutait du Led Zeppelin
                             Gm
Avec toute not’vie en avant
                                Eb
Mais par un esti d’soir vers la fin du printemps
Cm                            D7
   Après un party Dédé s’est tué
                      G
Y s’est endormi au volant




                                                                     69
                           C
J'vas toujours me rappeler de c’te soirée-là
D                               G
   Les Canadiens v’naient de gagner la coupe Stanley
Em                      Am
   Après sa mort on est tous tombés ben bas
D                            D7
   J’ai lâché l’Cégep en janvier


F     Am   Cm   D7   Gm   Eb      Cm   D7


G                                 Bm
     T’es arrivée au bon moment
Dm
   T’es sortie d’nowhere
   E7                                            Am
Un peu comme une fleur qui pousse dans le ciment
                            F
En d’sous des spots oranges du parc Champigny
Dm                               E7                          A
   C’est là que pour la première fois on s’est donné un gros bi


                             D
J’pense que c’était le plus beau jour de ma vie
E                          A
    Après ça j’t’ai payé l’lunch au Kentucky
F#m                            Bm
     J’suis allé te r’conduire a'ec le torse bombé
E                                 E7
  Maudit qu’c’soir-là j’ai ben dormi


G                            Bm
    On a eu des bons moments
Dm                 E7                                  Am
    Mais l’bonheur ça ben l’air que ça dure rien qu’un temps
                                F
Parce qu’une fois quand j’me suis pointé chez toi
Dm                        E7                                 A
    Chu r’venu comme un boxeur qui v’nait d’manger une volée
                                  C#m
Assis su’a table à pique-nique
Em                               F#7                                 Bm
   Tu m’as dit qu’t’en avais assez, que t’avais même un nouveau kick
                    G
J’suis parti en marchant sans me r’tourner
Em                                    F#7                 B
   Dans ton driveway j’me su’r’tenu pour pas partir à brailler


                             E
C’est comme si t’avais pris une paire de cutters
F#                         B
   Pis qu’t’avais coupé le cordon de mon coeur
G#m                    C#m
    J’me su’dévasté pendant une coup’ de s’maines
F#                                B          E    E  B
    Faut ben qu’un gars ravale sa peine...   hey hey hey
                                                                          70
                           E
L’automne est r’venue par la porte d’en arrière
F#                               B
    Dans ma banlieue la nuit est belle pis y’a d’l’espoir
G#m                             C#m
    La pleine lune reflète pareil comme un miroir
F#                              F#7         E     E
    Sur l’eau des piscines hors-terres...


La la la...

 B     E      F#    B
G#m   C#m     F#   F#7   E

 B     E      F#    B
G#m   C#m     F#   F#7   E

B




Accordéon qui joue en arrière transcrit à la guitare

   C#                Fm                   G#m               A#7
   1 + 2 + 3 + 4 +   1 + 2 + 3 - + - 4 +   1 + 2 + 3 + 4 +   1 + 2 + 3 + 4 +
e|-----------------|---------------------|-----------------|-6-------6-------|
B|---------------6-|-6-------7-6-------6-|-9-------9---9---|-------------9---|
G|-6-------6---8---|-----------------8---|-----------------|-----------------|
D|-----------------|---------------------|-----------------|-----------------|
A|-----------------|---------------------|-----------------|-----------------|
E|-----------------|---------------------|-----------------|-----------------|

  D#m                B                G#m               A#7
   1 + 2 + 3 + 4 +   1 + 2 + 3 + 4 +   1 + 2 + 3 + 4 +   1 + 2 + 3 + 4 +
e|-----------------|-----------------|-----------------|-----------------|
B|-----------------|-----------------|-----------------|-----------------|
G|-8-------8---8---|-----------------|-8-------8---8---|-----------------|
D|-----------------|-9-------9-------|-----------------|-8-------8-------|
A|-----------------|-----------------|-----------------|-----------------|
E|-----------------|-----------------|-----------------|-----------------|

   D#                Gm                   A#m                C7
   1 + 2 + 3 + 4 +   1 + 2 + 3 - + - 4 +   1 + 2 + 3 + 4 +   1 + 2 + 3 + 4 +
e|-----------------|---------------------|-----------------|-8-------8-------|
B|---------------8-|-8-------9-8-------8-|-11------11--11--|-------------11--|
G|-8-------8---10--|-----------------10--|-----------------|-----------------|
D|-----------------|---------------------|-----------------|-----------------|
A|-----------------|---------------------|-----------------|-----------------|
E|-----------------|---------------------|-----------------|-----------------|

   Fm                C#               A#m                C7
   1 + 2 + 3 + 4 +   1 + 2 + 3 + 4 +   1 + 2 + 3 + 4 +   1 + 2 + 3 + 4 +
e|-----------------|-9-------9-------|-----------------|-8-------8-------|
B|-----------------|-----------------|-----------------|-------------11--|
G|-10------10--10--|-----------------|-10------10--10--|-----------------|
D|-----------------|-----------------|-----------------|-----------------|
A|-----------------|-----------------|-----------------|-----------------|
E|-----------------|-----------------|-----------------|-----------------|

                                                                                 71
   F                 Bb                       C                 F
   1 + 2 + 3 + 4 +   1 + 2 - + - 3 + 4 +      1 + 2 + 3 + 4 +   1 + 2 - + - 3 + 4 +
e|---------------8-|-8----------------------|-----------------|------------------------|
B|-10----------10--|---11-11--10-11----11-10|-8-----------8-11|-11-10-10--8-10----10-8-|
G|---------10------|------------------------|---------9-------|------------------------|
D|-----------------|------------------------|-----------------|------------------------|
A|-----------------|------------------------|-----------------|------------------------|
E|-----------------|------------------------|-----------------|------------------------|

   Dm                Gm                     C                 C7
   1 + 2 + 3 + 4 +   1 + 2 - + - 3 + 4 +    1 + 2 + 3 + 4 +    1 + 2 + 3 + 4 +
e|-----------------|----------------------|------------------|-----------------|
B|---------------10|-10-8-8-----8-----8---|------------------|-----------------|
G|-10------7---10--|----------10--------10|-9-------9---10-9-|-9---------------|
D|-----------------|----------------------|------------------|-----------------|
A|-----------------|----------------------|------------------|-----------------|
E|-----------------|----------------------|------------------|-----------------|

  D#                Gm                   A#m                C7
   1 + 2 + 3 + 4 +   1 + 2 + 3 - + - 4 +   1 + 2 + 3 + 4 +   1 + 2 + 3 + 4 +
e|-----------------|---------------------|-----------------|-8-------8-------|
B|---------------8-|-8-------9-8-------8-|-11------11--11--|-------------11--|
G|-8-------8---10--|-----------------10--|-----------------|-----------------|
D|-----------------|---------------------|-----------------|-----------------|
A|-----------------|---------------------|-----------------|-----------------|
E|-----------------|---------------------|-----------------|-----------------|

   Fm                C#               A#m                C7
   1 + 2 + 3 + 4 +   1 + 2 + 3 + 4 +   1 + 2 + 3 + 4 +   1 + 2 + 3 + 4 +
e|-----------------|-9-------9---9---|-----------------|-8-------8-------|
B|-----------------|-----------------|-----------------|-------------11--|
G|-10------10--10--|-----------------|-10------10--10--|-----------------|
D|-----------------|-----------------|-----------------|-----------------|
A|-----------------|-----------------|-----------------|-----------------|
E|-----------------|-----------------|-----------------|-----------------|

   F                 Am                    Cm                D7
   1 + 2 + 3 + 4 +   1 + 2 + 3 - + - 4 +    1 + 2 + 3 + 4 +   1 + 2 + 3 + 4 +
e|-----------------|----------------------|-----------------|-10------10------|
B|---------------10|-10------11-10------10|-13------13--13--|-------------13--|
G|-10------10--12--|------------------12--|-----------------|-----------------|
D|-----------------|----------------------|-----------------|-----------------|
A|-----------------|----------------------|-----------------|-----------------|
E|-----------------|----------------------|-----------------|-----------------|

   Gm                Eb                Cm                D7
   1 + 2 + 3 + 4 +   1 + 2 + 3 + 4 +   1 + 2 + 3 + 4 +   1 + 2 + 3 + 4 +
e|-----------------|-----------------|-----------------|-----------------|
B|-----------------|-----------------|-----------------|-----------------|
G|-12------12------|-----------------|-12------12------|-----------------|
D|-----------------|-13------13--13--|-----------------|-12------12--10--|
A|-----------------|-----------------|-----------------|-----------------|
E|-----------------|-----------------|-----------------|-----------------|




                                                                                           72
   G                 C                      D                 G
   1 + 2 + 3 + 4 +   1 + 2 - + - 3 + 4 +      1 + 2 + 3 + 4 +   1 + 2 + 3 + 4 +
e|-----------------|-----------------------|-----------------|------------------|
B|-----------------|-----------------------|-----------------|------------------|
G|---------------7-|-7---------------------|-----------------|------------------|
D|-9-----------9---|---10-10--9-10----10-9-|-7-----------7-10|-10-9-9-7-9---9-7-|
A|---------10------|-----------------------|---------9-------|------------------|
E|-----------------|-----------------------|-----------------|------------------|

   Em                Am                D                  D7
   1 + 2 + 3 + 4 +   1 + 2 + 3 + 4 +   1 + 2 + 3 + 4 +    1 + 2 + 3 + 4 +
e|-----------------|-----------------|------------------|-----------------|
B|-----------------|-----------------|------------------|-----------------|
G|-----------------|-----------------|------------------|-----------------|
D|---------------9-|-9-7-7---7---7---|------------------|-----------------|
A|-10------7---10--|-------10------10|-9-------9---10-9-|-9---------------|
E|-----------------|-----------------|------------------|-----------------|

   F                 Am                    Cm                D7
   1 + 2 + 3 + 4 +   1 + 2 + 3 - + - 4 +    1 + 2 + 3 + 4 +   1 + 2 + 3 + 4 +
e|-----------------|----------------------|-----------------|-10------10------|
B|---------------10|-10------11-10------10|-13------13--13--|-------------13--|
G|-10------10--12--|------------------12--|-----------------|-----------------|
D|-----------------|----------------------|-----------------|-----------------|
A|-----------------|----------------------|-----------------|-----------------|
E|-----------------|----------------------|-----------------|-----------------|

   Gm                Eb                Cm                D7
   1 + 2 + 3 + 4 +   1 + 2 + 3 + 4 +   1 + 2 + 3 + 4 +   1 + 2 + 3 + 4 +
e|-----------------|-11------11------|-----------------|-10------10------|
B|-----------------|-----------------|-----------------|-------------13--|
G|-12------12--12--|-----------------|-12------12--12--|-----------------|
D|-----------------|-----------------|-----------------|-----------------|
A|-----------------|-----------------|-----------------|-----------------|
E|-----------------|-----------------|-----------------|-----------------|

   G                 Bm                     Dm                E7
   1 + 2 + 3 + 4 +   1 + 2 + 3 - + - 4 +    1 + 2 + 3 + 4 +   1 + 2 + 3 + 4 +
e|-----------------|----------------------|-----------------|-12------12------|
B|---------------12|-12------13-12------12|-15------15--15--|-------------15--|
G|-12------12--14--|------------------14--|-----------------|-----------------|
D|-----------------|----------------------|-----------------|-----------------|
A|-----------------|----------------------|-----------------|-----------------|
E|-----------------|----------------------|-----------------|-----------------|

   Am                F                 Dm                E7
   1 + 2 + 3 + 4 +   1 + 2 + 3 + 4 +   1 + 2 + 3 + 4 +   1 + 2 + 3 + 4 +
e|-----------------|-13------13------|-----------------|-12------12------|
B|-----------------|-----------------|-----------------|-------------15--|
G|-14------14--14--|-----------------|-14------14--14--|-----------------|
D|-----------------|-----------------|-----------------|-----------------|
A|-----------------|-----------------|-----------------|-----------------|
E|-----------------|-----------------|-----------------|-----------------|




                                                                                    73
   A                 D                        E                  A
   1 + 2 + 3 + 4 +   1 + 2 - + - 3 + 4 +      1 + 2 + 3 + 4 +    1 + 2 - + - 3 + 4 +
e|---------------12|-12---------------------|------------------|-------------------------|
B|-14----------14--|---15-15--14-15----15-14|-12----------12-15|-15-14-14--12-14----14-12|
G|---------14------|------------------------|---------13-------|-------------------------|
D|-----------------|------------------------|------------------|-------------------------|
A|-----------------|------------------------|------------------|-------------------------|
E|-----------------|------------------------|------------------|-------------------------|

  F#m                Bm                    E                 E7
   1 + 2 + 3 + 4 +   1 + 2 + 3 + 4 +       1 + 2 + 3 + 4 +    1 + 2 + 3 + 4 +
e|-----------------|---------------------|------------------|-----------------|
B|---------------14|-14-12-12----12--12--|------------------|-----------------|
G|-14------11--14--|----------14-------13|-12------12--13-12|-12--------------|
D|-----------------|---------------------|------------------|-----------------|
A|-----------------|---------------------|------------------|-----------------|
E|-----------------|---------------------|------------------|-----------------|

   G                 Bm                     Dm                E7
   1 + 2 + 3 + 4 +   1 + 2 + 3 - + - 4 +    1 + 2 + 3 + 4 +   1 + 2 + 3 + 4 +
e|-----------------|----------------------|-----------------|-12------12------|
B|---------------12|-12------13-12------12|-15------15--15--|-------------15--|
G|-12------12--14--|------------------14--|-----------------|-----------------|
D|-----------------|----------------------|-----------------|-----------------|
A|-----------------|----------------------|-----------------|-----------------|
E|-----------------|----------------------|-----------------|-----------------|

   Am                F                 Dm                E7
   1 + 2 + 3 + 4 +   1 + 2 + 3 + 4 +   1 + 2 + 3 + 4 +   1 + 2 + 3 + 4 +
e|-----------------|-13------13------|-----------------|-12------12------|
B|-----------------|-----------------|-----------------|-------------15--|
G|-14------14--14--|-----------------|-14------14--14--|-----------------|
D|-----------------|-----------------|-----------------|-----------------|
A|-----------------|-----------------|-----------------|-----------------|
E|-----------------|-----------------|-----------------|-----------------|

   A                C#m                     Em               F#7
   1 + 2 + 3 + 4 +   1 + 2 + 3 - + - 4 +    1 + 2 + 3 + 4 +   1 + 2 + 3 + 4 +
e|-----------------|----------------------|-----------------|-14------14------|
B|---------------14|-14------15-14------14|-17------17--17--|-------------17--|
G|-14------14--16--|------------------16--|-----------------|-----------------|
D|-----------------|----------------------|-----------------|-----------------|
A|-----------------|----------------------|-----------------|-----------------|
E|-----------------|----------------------|-----------------|-----------------|

   Bm                G                 Em               F#7
   1 + 2 + 3 + 4 +   1 + 2 + 3 + 4 +   1 + 2 + 3 + 4 +   1 + 2 + 3 + 4 +
e|-----------------|-15------15------|-----------------|-14------14------|
B|-----------------|-----------------|-----------------|-------------17--|
G|-16------16--16--|-----------------|-16------16--16--|-----------------|
D|-----------------|-----------------|-----------------|-----------------|
A|-----------------|-----------------|-----------------|-----------------|
E|-----------------|-----------------|-----------------|-----------------|




                                                                                             74
   B                 E                  F#                B
   1 + 2 + 3 + 4 +   1 + 2 + 3 + 4 +    1 + 2 + 3 + 4 +   1 + 2 + 3 + 4 +
e|-----------------|------------------|-----------------|------------------|
B|-16--------------|-17----------17-16|-14--------------|-16----------16-14|
G|-----------------|------------------|-----------------|------------------|
D|-----------------|------------------|-----------------|------------------|
A|-----------------|------------------|-----------------|------------------|
E|-----------------|------------------|-----------------|------------------|

  G#m               C#m                  F#                 B       E   E
   1 + 2 + 3 + 4 +   1 + 2 + 3 + 4 +     1 + 2 + 3 + 4 +    1 + 2 + 3 + 4 +
e|-----------------|-------------------|------------------|-14--------------|
B|---------------16|-16-14-14--16--14--|------------------|---------17--17--|
G|-16------13--16--|---------16------16|-15------15--16-15|-----------------|
D|-----------------|-------------------|------------------|-----------------|
A|-----------------|-------------------|------------------|-----------------|
E|-----------------|-------------------|------------------|-----------------|

   B                  E                      F#                B
   1 + 2 + 3 + 4 +    1 + 2 + 3 + 4 +        1 + 2 + 3 + 4 +     1 + 2 + 3 + 4 +
e|----------------14|-14-------------------|------------------|----------------------|
B|-16----------16---|----17-17-16-17--17-16|-14----------14-17|-17-16-16-14-16--16-14|
G|---------16-------|----------------------|---------15-------|----------------------|
D|------------------|----------------------|------------------|----------------------|
A|------------------|----------------------|------------------|----------------------|
E|------------------|----------------------|------------------|----------------------|

  G#m               C#m                  F#                 B       E   E
   1 + 2 + 3 + 4 +   1 + 2 + 3 + 4 +     1 + 2 + 3 + 4 +    1 + 2 + 3 + 4 +
e|-----------------|-------------------|------------------|-14--------------|
B|---------------16|-16-14-14--16--14--|------------------|---------17--17--|
G|-16------13--16--|---------16------16|-15------15--16-15|-----------------|
D|-----------------|-------------------|------------------|-----------------|
A|-----------------|-------------------|------------------|-----------------|
E|-----------------|-------------------|------------------|-----------------|

   B                  E                      F#                B
   1 + 2 + 3 + 4 +    1 + 2 + 3 + 4 +        1 + 2 + 3 + 4 +     1 + 2 + 3 + 4 +
e|----------------14|-14-------------------|------------------|----------------------|
B|-16----------16---|----17-17-16-17--17-16|-14----------14-17|-17-16-16-14-16--16-14|
G|---------16-------|----------------------|---------15-------|----------------------|
D|------------------|----------------------|------------------|----------------------|
A|------------------|----------------------|------------------|----------------------|
E|------------------|----------------------|------------------|----------------------|

  G#m               C#m                  F#                 B       E   E
   1 + 2 + 3 + 4 +   1 + 2 + 3 + 4 +     1 + 2 + 3 + 4 +    1 + 2 + 3 + 4 +
e|-----------------|-------------------|------------------|-14--------------|
B|---------------16|-16-14-14--16--14--|------------------|---------17--17--|
G|-16------13--16--|---------16------16|-15------15--16-15|-----------------|
D|-----------------|-------------------|------------------|-----------------|
A|-----------------|-------------------|------------------|-----------------|
E|-----------------|-------------------|------------------|-----------------|




                                                                                         75
   B                  E                      F#                B
   1 + 2 + 3 + 4 +    1 + 2 + 3 + 4 +        1 + 2 + 3 + 4 +     1 + 2 + 3 + 4 +
e|----------------14|-14-------------------|------------------|----------------------|
B|-16----------16---|----17-17-16-17--17-16|-14----------14-17|-17-16-16-14-16--16-14|
G|---------16-------|----------------------|---------15-------|----------------------|
D|------------------|----------------------|------------------|----------------------|
A|------------------|----------------------|------------------|----------------------|
E|------------------|----------------------|------------------|----------------------|

  G#m               C#m                  F#                 B       E   E     B
   1 + 2 + 3 + 4 +   1 + 2 + 3 + 4 +     1 + 2 + 3 + 4 +    1 + 2 + 3 + 4 +   1 ...
e|-----------------|-------------------|------------------|-14--------------|----
B|---------------16|-16-14-14--16--14--|------------------|---------17--17--|-16-
G|-16------13--16--|---------16------16|-15------15--16-15|-----------------|----
D|-----------------|-------------------|------------------|-----------------|----
A|-----------------|-------------------|------------------|-----------------|----
E|-----------------|-------------------|------------------|-----------------|----




                                                                                         76
Cowboys Fringants - Le Shack À Hector

      G     D     Em    C     A7    D7    Bm
e|----3-----2-----0-----0-----0-----2-----2----
B|----3-----3-----0-----1-----2-----1-----3----
G|----0-----2-----0-----0-----0-----2-----4----
D|----0-----0-----2-----2-----2-----0-----4----
A|----2-----------2-----3-----0-----------2----
E|----3-----------0----------------------------


Intro:

|G       D   |Em          |C     G   A7 |D    D7        |
|C       D   |Bm    Em    |C     G   A7 |D    D7        |



       G            D        Em
On est monté par la 131 nord
       C          G           A7    D    D7
Fait 40 miles sur des chemin en garnotte
           C               D
Su'l'banc d'en arrière les frères Talbot
   Bm                         Em
Dormaient comme des marmottes
         C                        G   A7       D        D7
Pendant qu'on cherchaient l'shack à mononc' Hector


             G            D           Em
Une vieille baraque avec le toit défoncé
                C              G          A7      D    D7
Bourrée d'mulot, d'insectes pis d'toiles d'araignée
        C             D
C'pas mêlant y avait même
            Bm                Em
Un nid d'oiseau dans lavabo
          C                 G          A7     D     D7
Pis l'plancher était parsemé d'chiures de moineau


           C           D                   Em
A va être bonne à soir dans l'shack à Hector
         C      Em       G        C           D    D7
Ouvre la valise pis sort les bouteilles de fort
       C               D                Em
Pis si jamais ton foie décide d'être malade
                C               D
Arrange-toi donc pour pas faire ça
                   G
Dans le plat d'salade




                                                             77
           G            D                    Em
Quand je suis allé dans la chambre à coucher
           C              G   A7 D     D7
J'ai trouvé un gars poilu ben évaché
       C                D           Bm              Em
Y'nous a dit qui s'tait évadé d'la prison d'Port-Cartier
         C              G          A7        D   D7
Qui s'cachait icite pis qui s'appelait Roger


         G                   D                 Em
Fa'qu'on y a dit "Viens donc trinquer dans cuisine"
                      C                G        A7        D    D7
"Quoi d'mieux qu'une grosse bière pis une bonne plottée d'bines"
     C           D
On a mangé en silence
              Bm                   Em
d'vant l'calendrier d'femmes tout nus
       C         G       A7        D     D7
Miss January qui nous montrait son cul


           C           D                   Em
A va être bonne à soir dans l'shack à Hector
         C      Em       G       C            D  D7
Ouvre la valise pis sort les bouteilles de fort
       C               D                Em
Pis si jamais ton foie décide d'être malade
                     C               D            G
Compte pas sur nous autres pour jouer à' garde-malade


     G          D                  Em
On a commencé à prendre un coup solide
            C             G           A7        D     D7
Et c'est ainsi que s'entassèrent les bouteilles vides
                C                 D               Bm                  Em
Pendant qu'not' nouveau chum Roger nous comptait des histoires salées
          C                 G      A7     D    D7
Ben nous autres on riaient à gorge déployée


        G                   D             Em
Plus la soirée allait plus on était guerlots
            C                 G           A7     D    D7
Même que l'gros Talbot était saoul comme un tonneau
            C             D          Bm                    Em
Ça pas été long qu'on l'a r'trouvé à quat' pattes dans' nature
          C           G       A7 D     D7
En train d's'ostiner avec sa vomissure




                                                                           78
           C           D                   Em
A va être bonne à soir dans l'shack à Hector
         C      Em       G       C            D   D7
Ouvre la valise pis sort les bouteilles de fort
       C               D                Em
Pis si jamais ton foie décide d'être malade
                   C
Bouche-toi donc l'nez
             D                     G
Pis va donc faire une p'tite prom'nade


         G            D                    Em
Au p'tit matin Talbot se r'mettait d'sa brosse
               C                 G     A7         D  D7
Ça f'sait une heure qu'y était enfermé dans 'bécosse
      C           D              Bm            Em
En sortant y nous a dit "Si vous allez à 'toilette"
           C            G        A7 D      D7
"J'vous conseille de craquer une alumette"


          G                 D               Em
On s'est rendu compte qu'Roger s'était poussé
            C                  G      A7       D   D7
Avec not' char not' linge not' argent pis nos clés
        C             D                Bm          Em
Heureusement y'a pris soin de nous laisser 3-4 six-pack
          C               G   A7        D     D7
Qu'on va boire à soir ben écrasé dans l'shack


           C           D                  Em
A va être bonne à soir dans l'shack à Hector
         C      Em         G     C           D   D7
Ouvre la valise pis sort les bouteilles de fort
      C         D                  Em
Et la morale de cette charmante histoire
              C          D               G <- final
Qui boit trop fort s'en revient sans son char




                                                          79
Cowboys Fringants - Mon Chum Rémi

Riff 1: (les notes entre parenthèses sont pour quand il n'y a pas de paroles)
    D              Bm              F#m          A
    1 -    - 2 - - 3 -    - 4 - -   1 - - 2 - - 3 - - 4 - -
e|-----------2--------------2-----|-------2-----------0------|
B|-----(2h)3---3--------------3---|---------2-----------2----|
G|o---2----------2----(2h)4-----4-|-----2-----2-----2-----2-o|
D|o-0----------------4------------|---4-----------2---------o|
A|-----------------2--------------|-------------0------------|
E|--------------------------------|-2------------------------|

Riff 2:
   G           D             A           D
   1 - - 2 - - 3 - - 4 - -   1 - - 2 - - 3 - - 4 - -
e|-------3-----------2-----|-------0-----------0-----|
B|---------0-------3---2---|---------2-----------2---|
G|-----0-----0---2-------3-|-----2-----2-----2-----2-|
D|---0---------0-----------|---2-----------2---------|
A|-------------------------|-0-----------0-----------|
E|-3-----------------------|-------------------------|

   G           D             A
   1 - - 2 - - 3 - - 4 - -   1 - - 2 - - 3 - - 4 - -
e|-------3-----------2-----|-------0-----------------|
B|---------0-------3---3---|---------2---------------|
G|-----0-----0---2-------2-|-----2-----2-------------|
D|---0---------0-----------|---2---------------------|
A|-------------------------|-0-----------0-----------|
E|-3-----------------------|-------------------------|

Riff 3:
   D           A             Bm                          G           A
   1 - - 2 - - 3 - - 4 - -   1 - - 2   - - 3 - - 4 - -   1 - - 2 - - 3 - - 4 - -
e|-------2-----------------|---------------2-----2-----|-------3-----------0-----|
B|-----3---3---------2-----|-------2h3---3---3-----3---|---------0-----------2---|
G|---2-------2-----2---2---|-----4-----4-------4-----4-|-----0-----0-----2-----2-|
D|-0-------------2-------2-|---4---------4-------------|---0-----------2---------|
A|-------------0-----------|-2-------------------------|-------------0-----------|
E|-------------------------|---------------------------|-3-----------------------|


Intro: Riff 1: 2x


Riff 1:




                                                                                     80
         D                     Bm
Le gros donne-moi tes clés, tu pètes la balloune
     F#m                       A
T'es ben trop paqueté pour chauffer ta minoune
         D                       Bm
Le last-call est passé, y'a pu' un chat dans' place
             F#m                  A
Viens j'te paye un café au p'tit resto d'en face
         D                             Bm
Ça fait une couple de s'maines que tu parles de t'tirer
              F#m                       A
Pis qu'tu m'sors tes rengaines de gars qui est déprimé
             Ré                     Bm
Mais "come on" fait pas l'con faut savoir s'accrocher
         F#m                 A
Tsé les mauvais cotons, ça finit par passer


Riff 2:
   G                    D     A                       D
En plus j'aurais pu' personne, j'aurais pu' mon vieux chum
        G                   D                  A
Qui viendrait m'bummer des "topes" quand ça va mal à' shop


Riff 3:
           D   A                  Bm
Heille Rémi,      fais pas d'conneries
                G                    A              D
J't'aime ben la face pis tu m'dois encore cinquante piass'


Riff 1: 1x


Riff 1:
            D                Bm
Les spots sont allumés, le patron compte sa caisse
      F#m                     A
La waitress est tannée, y' faudrait ben qu'on s'presse
      D                       Bm
Tsé Rémi moi aussi j'en viens à me d'mander
        F#m                     A
À quoi ça sert la vie quand ça s'met à clocher
          D                              Bm
Et pis j'trouve que par bout' c'est vraiment pas facile
            F#m                           A
Qu'on est ben seuls su'a route dans c't'univers débile
               D                    Bm
Mais rentre donc à' maison, t'as un flot qui t'adore
              F#m                      A
Ça c't'une vraie bonne raison pour pas passer d'l'aut' bord


Riff 2:
    G                   D     A                       D
Pis moi j'aurais pu' personne, j'aurais pu' mon vieux chum
      G                           D        A
Celui que "j'plume" à chaque année avec le pool de hockey...


                                                               81
Riff 3:
           D   A                  Bm
Heille Rémi,      fais pas d'conneries
                G                    A              D
J't'aime ben la face pis tu m'dois encore cinquante piass'


Riff 1: 1x


Riff 1:
            D                  Bm
Au lieu d'tirer la plug sur ta crisse de vie d'bum
          F#m                          A
Essaie d'lâcher la drogue pis d'faire de toi un homme
            D                            Bm
Parce que moi j'veux r'trouver l'vieux chum que j'ai connu
         F#m                      A
Mais personne peut t'aider si toi tu t'bottes pas l'cul
       D                            Bm
Le bus-boy passe la moppe, y' vont barrer les portes
            F#m                     A
On s'fume une dernière tope, après faudrait qu'on sorte
          D                       Bm
Juste au moment d'se l'ver, y'a fini par me dire
       F#m                          A      A                 D
De pas trop m'inquiéter pis qu'y allait... essayer d'se r'saisir


Riff 1: 2x

Riff 3:
           D   A                  Bm
Heille Rémi,      fais pas d'conneries
                G                    A              D
J't'aime ben la face pis tu m'dois encore cinquante piass'


Riff 1: 2x




                                                                   82
Cowboys Fringants - Toune D'Automne

       G     Em    C     D     B7    Am Dsus4
e|-----3-----0-----0-----2-----2-----0-----3-----
B|-----0-----0-----1-----3-----0-----1-----3-----
G|-----0-----0-----0-----2-----2-----2-----2-----
D|-----0-----2-----2-----0-----1-----2-----0-----
A|-----2-----2-----3-----------2-----0-----------
E|-----3-----0-----------------------------------

Exemple de rythme:
   G               Em
   1 - + - 2 - + - 3 - + - 4 - + -
e|-----3-----3-3-------3-----3-3---|
B|-----0-----0-0-------0-----0-0---|
G|-----0-----0-0-------0-----0-0---|
D|-----0-----0-0-------0-----0-0---|
A|-----2-----2-2-------2-----2-2---|
E|-3---------------3---------------|


Intro: G   Em   C   D   G   Em   B7

           G             Am                   D                   G
Comment ça va ma p'tite soeur? Viens que j'te serre dans mes bras
        Em                   Am        D               C
Pis, as-tu r'trouvé l'bonheur dans ton trip au Canada?
                      B7        Em              C                      Dsus4 D
Dans l'bout' c't'année y s'est pas passé grand'chose, c't'un peu morose...

            G                             Am            D                 G
J'espère au moins qu'c't'ait l'fun là-bas, chu fier que tu m'aies pas ramené
        Em              Am              D           C
Un beau-frère de l'Alberta, ça m'aurait un peu ébranlé
            B7              Em                 C            D
Jure-moi donc que c'fois là tu restes à' maison pour de bon


   G          Em            C                  D                    G
Anyway chu content que tu r'viennes, t'arrives en même temps qu'l'automne
             Em                  C          D                 G    Em     B7
Tsé qu'ça m'a fait ben d'la peine de t'voir partir ma mignonne


           G             Am        D           G
Icitte y'a papa qui se r'met de sa p'tite opération
           Em           Am           D                            C
T'aurais dû l'voir y feakait, fallait l'traiter aux p'tits oignons
        B7       Em                  C               Dsus4 D
Et môman s'est inquièté toute l'année à cause de toé

       G               Am     D                  G
De mon bord j'ai décidé d'arrêter     de végéter
           Em          Am             D                  C
J'rentre à l'université, on verra     c'que ça va donner
                 B7          Em                     C                  D
Mais tu m'connais, chu pas motivé     plus qui faut, c'est pas nouveau




                                                                                 83
   G          Em            C                  D                    G
Anyway chu content que tu r'viennes, t'arrives en même temps qu'l'automne
             Em                  C          D                 G    Em     B7
Tsé qu'ça m'a fait ben d'la peine de t'voir partir ma mignonne


             G          Am                    D              G
J'ai vu Simon le mois passé, ç'avait pas trop l'air de filer
             Em                Am             D         C
Y m'a dit qu't'avais pas appelé depuis sa fête en février
               B7           Em                  C                    Dsus4 D
Si tu l'aimes pus, faudrait peut-être pas l'niaiser, c't'un bon buddy

        G             Am                   D         G
Et puis toé ma p'tite soeur, es-tu toujours aussi perdue?
           Em                 Am           Em                        D
C'est ti encore la grande noirceur? Ou ben si t'as r'pris le dessus?
              B7          Em                  C              D
Tsé qu'la vie est parsemée de p'tites misères, faut pas t'en faire


   G          Em            C                  D                    G
Anyway chu content que tu r'viennes, t'arrives en même temps qu'l'automne
             Em                  C          D
Tsé qu'ça m'a fait ben d'la peine de t'voir partir ma mignonne

G   Em   C    D
G   Em   C    D
G   Em   C    D
G   Em   B7

   G          Em            C                  D                    G <-final
Anyway chu content que tu r'viennes, t'arrives en même temps qu'l'automne




                                                                                84
Cowboys Fringants - À' Polyvalente

Riff 1:
   C    G  C   G     C   G   C
   1 + 2 + 3 + 4 +   1 + 2 + 3 + 4 +
e|-----------------|-----------------|
B|---1---0---1---0-|---1---0-1-------|
G|---0---0---0---0-|---0---0-0-------|
D|---2---0---2---0-|---2---0-2-------|
A|-3-------3-------|-3-------3---0-2-|
E|-----3-------3---|-----3-----3-----|

Riff 2:
    C G/B Am G        F   C   G
    1 + 2 + 3 + 4 +   1 + 2 + 3 + 4 +
e|------------------|------------------|
B|----1---0---1---0-|---1---1---0------|
G|o---0---0---2---0-|---2---0---0-----o|
D|o---2---0---2---0-|---3---2---0-----o|
A|--3---2---0-------|-----3-------0-2--|
E|--------------3---|-1-------3--------|

    C G/B Am G        F   C   G
    1 + 2 + 3 + 4 +   1 + 2 + 3 + 4 +
e|------------------|------------------|
B|----1---0---1---0-|---1---1---0---0--|
G|o---0---0---2---0-|---2---0---0---0-o|
D|o---2---0---2---0-|---3---2---0---0-o|
A|--3---2---0-------|-----3-------2----|
E|--------------3---|-1-------3--------|

Riff 3:
   C    G  C   G     C   G   C         D   A   D   A     D   A   D   A
   1 + 2 + 3 + 4 +   1 + 2 + 3 + 4 +   1 + 2 + 3 + 4 +   1 + 2 + 3 + 4 +
e|-----------------|-----------------|---2-------2-----|---2-----2-------|
B|---1---0---1---0-|---1---0-1-------|---3---2---3---2-|---3---2-3---2---|
G|---0---0---0---0-|---0---0-0-------|---2---2---2---2-|---2---2-2---2---|
D|---2---0---2---0-|---2---0-2-------|-0-----2-0-----2-|-0-----2-0---2---|
A|-3-------3-------|-3-------3-2-3-4-|-----0-------0---|-----0-------0---|
E|-----3-------3---|-----3-----------|-----------------|-----------------|

Riff 4:
    D A/C# Bm A       G   D   A
    1 + 2 + 3 + 4 +   1 + 2 + 3 + 4 +
e|----2-------------|-------2----------|
B|----3---2---3---2-|---0---3---2---2--|
G|o---2---2---4---2-|---0---2---2---2-o|
D|o-0-----2---4---2-|---0-0-----2---2-o|
A|------4---2---0---|---------0---0----|
E|------------------|-3----------------|

Riff 5
   D   A   D   A     D   A   D
   1 + 2 + 3 + 4 +   1 + 2 + 3 + 4 +
e|---2-------2-----|---2-----2-1-2~--|
B|---3---2---3---2-|---3---2-3-2-3~--|
G|---2---2---2---2-|---2---2-2-1-2~--|
D|-0-----2-0-----2-|-0-----2-0-------|
A|-----0-------0---|-----0-----------|
E|-----------------|-----------------|

                                                                             85
Intro: Riff 1

Riff 2:
C                   G/B                Am                 G
Dans l'temps d'la polyvalente c'tait l'kik de toutes les étudiantes
F                      C                     G
C'est vrai qu'y était beau bonhomme pis qu'y avait un p'tit côté bum
    C              G/B          Am                G
C'était l'idole de ses amis, y'était toujours ben entouré
  F                  C                  G
Y faisait rire toute la galerie quand y'était saoul dans les partés

Riff 1

Riff 2:
    C             G/B           Am                  G
La nature y'avait tout donné, paraît qu'y était ben amanché
    F                        C                 G
Y'avait deux trois blondes en même temps, pour lui c'tait même pas fatiguant
  C                    G/B                 Am               G
C'tait l'meilleur dans tous les sports, au football y'était pas mal fort
      F                    C             G
Pis c'tait tout un joueur de hockey même qu'on pensait qu'y s'rait r'pêché...

Riff 1

Riff 2:
      C                G/B          Am              G
Mais comme y'amait pas étudier, y'a tout lâché pour travailler
  F              C                G
À shop y faisait ben d'l'argent, assez pour flasher un bout d'temps
    C                G/B            Am           G
Un jour y s'est fait estropier, y'é tombé su'a C.S.S.T.
    F                C                 G
Le pauvre ne pouvait pas savoir qu'la vie v'nait d'y régler son sort

Riff 3

Riff 4:
  D                  A/C#                   Bm              A
Aujourd'hui l'gars a quatre enfants, s'fait vivre par le gouvernement
    G                D           A
Le cul d'sa blonde a quadruplé depuis l'jour où il l'a mariée
    D                    A/C#        Bm                 A
Et quand on l'rencontre dans la rue avec sa bonne femme en leggings
    G                  D                      A
On n'en r'vient pas de c'qui est dev'nu, dire qu'à polyvalente c'tait l'king

Riff 5 <- finale




                                                                                86
Crampe en masse - Berceuse pour les pas fins

Capot 4e Fret

Am       Dm       G       C     C/B
F        Bb       E       Esus4

Am              Dm
Crève mon sale, t'es un mangeux de marde
      G            C           C/B
un maudit crotté, un malade mental
              F
m'as te faire poignarder
Bb                          E
Tu mériterais de te faire passer
                      Esus4
dessus par un char ou un camion à ciment


Am              Dm
Crève mon sale, t'es un pédophile
      G
un mangeux de crapauds
C                  C/B
tu sens la canisse d'huile
         F
t'es un sniffeux de moppe
Bb
Un licheux de poubelle
           E
j'te clouerais la langue dans le front
        Esus4
pis je te ferais dire "ananas"


Am               Dm
Crève mon sale, m'as te faire empailler
            G
pis m'as te tirer dessus
C                   C/B               F
M'as dire à tout le monde que t'aimeS le fushia
Bb                            E
Tu mériterais juste que je t'arrache les deux yeux
           Esus4
Pis que je les passe dans mon broyeur


Am
Crève mon sale,
Dm                               G
je vais envoyer mon chien pisser su' ta tombe
C                    C/B           F
Je vais aller te déterrer pour te voir pourrir
Bb                            E
Je vais remplir ton trou avec des déchets dangeureux
Esus4
pis je vais mettre le feu dedans


Plein de voies en même temps...

                                                       87
Crampe en Masse - Motel California

Rythme de base:

   Am
   1 + 2 + 3 + 4 +   1 + 2 + 3 + 4 +   1 + 2 + 3 + 4 +   1 + 2 + 3 + 4 +
e|---0---0---0---0-|---0---0---0---0-|---0---0---1---1-|-0---------------|
B|---1---1---1---1-|---1---1---1---1-|---1---1---3---3-|-0---------------|
G|---2---2---2---2-|---2---2---2---2-|---2---2---2---2-|-1---------------|
D|---2---2---2---2-|---2---2---2---2-|---2---2-0-------|-2---------------|
A|-0-------0-------|-----0-------0---|-----0-------0---|-2---------------|
E|-----0-------0---|-0-------0-------|-0---------------|-0---------------|


Am
Pour faire du sexe ça prend un homme
Pour faire du sexe ça prend une femme
                                  Dm
Deux trois caisses d'organes génitaux
E                              Am
Pis oublie pas de fermer les rideaux

Am
Tu te loues un motel à 20$
Parce que tu aimes ça baiser dans la crasse
                              Dm
Oublie pas de carter la jeune fille
E                                Am
Si tu veux pas trouble avec sa famille

Am
Tu as de la misère avec la brassière
Elle ne veut pas se défaire la calvaire
                           Dm
Le gars de l'Évangile en papier
E                      Am
Arrive pour te la découper

Am
Le téléphone sonne laisse-le faire
Tu t'installes pour le soixante-neuf
                         Dm
Pis si tu fais l'étoile avant
E                             Am
Tu sais c'est qui qui t'a appelé

Am
Et là tu sens que ça s'en vient
Elle la frotte avec ses deux mains
                         Dm
C'est important de l'avertir
E                            Am
C'est pas un génie qui va sortir




                                                                             88
Am
Tu es en train de faire l'acte
Quand tout à coup la tabarnacte
                           Dm E
Te dit qu'elle a des champignons
                           Dm E
Te dit qu'elle a des champignons
                           Dm E
Te dit qu'elle a des champignons
E                                    Am
Pis y a des schtroumpfs qui vivent dedans

Am
Le schtroumpf farceur te pince une gosse
Schtroumpf bricoleur te sable la poche
                              Dm
Schtroumpf musicien joue du pipeau...
E                                         Am E   Am E Am
Pis le schtroumpf gourmand… ben y est gourmand




                                                           89
Damien Rice - The Blower's Daughter

      E     A     B   Esus4 C#m    Abm   F#m    C#   Ebm   Bbm    F#
e|----0-----0-----2-----0-----4-----4-----2-----4-----6-----1-----2----
B|----0-----2-----4-----0-----5-----4-----2-----6-----7-----2-----2----
G|----1-----2-----4-----2-----6-----4-----2-----6-----8-----3-----3----
D|----2-----2-----4-----2-----6-----6-----4-----6-----8-----3-----4----
A|----2-----0-----2-----2-----4-----6-----4-----4-----6-----1-----4----
E|----0-----------------0-----------4-----2-----------------------2----

             E                           A
And so it is just like you said it would be
                  B      A            E    Esus4   E           Esus4
Life goes easy on me most of the time
           E                       A
And so it is, the shorter story
                B                    C#m
No love, no glory, no hero in her sky

                    A                            Abm
I can't take my eyes off of you, I can't take my eyes off you
                F#m                              E
I can't take my eyes off of you, I can't take my eyes off you
                A              B                       A               B
I can't take my eyes off you,      I can't take my eyes...

            E                            A
And so it is just like you said it should be
                         B       A            E        Esus4      E        Esus4
We'll both forget the breeze most of the time
            E                  A
And so it is, the colder water
                     B                 C#m
The blower's daughter, the pupil in denial

                    A                            Abm
I can't take my eyes off of you, I can't take my eyes off you
                F#m                              E
I can't take my eyes off of you, I can't take my eyes off you
                A              B                       A               B
I can't take my eyes off you,      I can't take my eyes...

F#                                  B
   Oooooooooohh, did I say that I loathe you?
                   Abm   C#             Ebm
Did I say that I want to leave it all behind?

                    B                            Bbm
I can't take my mind off of you, I can't take my mind off you
                Abm                              F#
I can't take my mind off of you, I can't take my mind off you
                B              C#                       B
I can't take my mind off you,      I can't take my mind

My mind... my mind..   'Til I find somebody new




                                                                                   90
Daniel Boucher - Boules à mites

      Am   C/B    C     G     E
e|----0-----0-----0-----3-----0----
B|----1-----1-----1-----0-----0----
G|----2-----0-----0-----0-----1----
D|----2-----x-----2-----0-----2----
A|----0-----2-----3-----2-----2----
E|----------------------3-----0----

Le C/B est entre tous les passages de Am à C


Intro:
   D               G           C        2 + 3 + 4 +
e|---------2-------3---3-------3----|---------------|
B|--------3--------3---3-------5----|---------------|
G|-------2-----2---4---4-------5----|---------------|
D|-0----0------0---5---5---0---5----|---x---x---x---|
A|-----------------5---5-------3----|---x---x---x---|
E|-----------------3---3------------|---x---x---12\-|

   Am                                 Em
   1 - + - 2 - + - 3 - + - 4 - + -    1 - + - 2 - + - 3 - + - 4 - + -
e|----------------------------------|----------------------------------|
B|----------------------------------|----------------------------------|
G|o---------------------------------|-------------------------9-------o|
D|o-------------x-x-x-x---------x-x-|---------x-x-----x-x-----9---x-x-o|
A|--------------x-x-x-x---------x-x-|---------x-x-----x-x-----7---x-x--|
E|--3h5-5-5-5---x-x-x-x-3---5---x-x-|-3---0---x-x-0---x-x-0-------x-x--|

Répéter ce riff 4 fois


Ben assis nu-pieds su'l'bois franc

Le p'tit rouge, la flamme en transe

La boucane qui danse, les p'tits yeux luisants

Et que se répande l'odeur d'la shit et que se répande le son d'le guit'



Am   C                                         G
         La chandelle éclaire le coin du lit
E
  À soir, on fouille les boules à mites
Am  C                                     G
      La chandelle éclaire le coin du lit
           E
À soir, on fouille les boules à mites




                                                                           91
Am
      Sur ma table
C                         G
   Des morceaux de vie éparpillés
    E                           Am
Des morceaux de vie, des belles années
                        C
Pis dans ma tête, là...
 G                          E
Ablazdablouéyaranachouizéyagaouère...

OOOHHH madame

Am          C
     Et pis tourne
G                   E
      Mon esprit tourne
Am
    Se cogne à plein de bruits
  C
À plein d'idées jolies
              G
Ça fait tout plein de jus d'idées jolies
            E
Ça fait du jus de joie...

Youppiiii!


Riff de l'intro 4x sans les temps 2-3-4 de la 2e mesure

Ben assis nu-pieds su'l'bois franc

Le p'tit rouge, la flamme en transe

La boucane qui danse, les p'tits yeux luisants

Et que se répande l'odeur d'la shit et que se répande le son d'le guit'



Am
Ben assis
E             Am
Nu-pieds su'l'bois franc
                     E
Le p'tit rouge, la flamme en transe
Am                        E
La boucane qui danse, les p'tits yeux luisants
     Am
Et que se répande l'odeur d'la shit
     E
Et que se répande le son d'la guit'




                                                                          92
Am   C                                         G
         La chandelle éclaire le coin du lit
E
  À soir, on fouille les boules à mites
Am  C                                     G
      La chandelle éclaire le coin du lit
           E
À soir, on fouille les boules à mites


    Dm
    1 - + - 2 - + - 3 - + - 4 - + -   1 - + - 2 - + - 3 - + - 4 - + -
e|--5-------------------------------|---------5------------------------|
B|--6-------------------------------|---------6------------------------|
G|o-7-------7---10----------7---9---|---------7-----------------------o|
D|o-7-------------------------------|---------7-----------------------o|
A|--5-------------------------------|---------5------------------------|
E|----------------------------------|----------------------------------|

Dm
Ça brûle autour de moé
Le feu d'la chandelle
La flamme de ma vie
Feu mon parternel
Qui me r'garde aller
Pis ma p'tite coupe Stanley à côté
Qui brille


    Am
    1 - + - 2 - + - 3 - + - 4 - + -
e|-----------------------------------|
B|-----------------------------------|
G|-----------------------------------|
D|--x-x-x-x-x-x-x-----------x-x-x-x--|
A|--x-x-x-x-x-x-x-----------x-x-x-x--|
E|--x-x-x-x-x-x-x-3-----5---x-x-x-x--|


Et là...
Lafleur derrière son filet
Prend bien son temps
Cède le disque à Boucher
Le voilà qui décampe
Quel partineur!
Boucher... déjà en zone neutre
Oh! Déjoue Salming
Se présente seul devant Palmateer

         Dm
Et le but!   Et le but!
Am                          Dm
   Daniel Boucher!   Daniel Boucher!

Et le but!   Et le but!
Am                          Dm
   Daniel Boucher!   Daniel Boucher!




                                                                           93
Et le but!   Et le but!
Am                          Dm
   Daniel Boucher!   Daniel Boucher!
                        E
Et le but!   Et le but!


Am
     Une grosse auto
C
     Une grosse époque
G
   Deux madames
        E
La plus jeune a l'a une grosse bédaine
Am
   Quarante semaines
C                        G
   C'est aujourd'hui que commence ma vie
      E                              Am
C'est aujourd'hui qu'elle suspend la sienne
C
Bang!
        G                                 E
Grand-moman a l'avait fermé la porte du taxi su'a tête à ma mère!
Am
   Et ce fut le début
      C
D'une pas pire épopée
G
   Je vous en ai roté
E
   Des 'tits bouttes incongrus

Am    C                                         G
          La chandelle éclaire le coin du lit
E
  À soir, on fouille les boules à mites
Am  C                                     G
      La chandelle éclaire le coin du lit
           E
À soir, on fouille les boules à mites

   Am                    C
Ablazdablouéyaranachouizéyagaouère...
              G
OOOHHH madame

OOOHHH madame, le p'tit rouge
E
   Une pas pire épopée

   Am                    C
Ablazdablouéyaranachouizéyagaouère...
              G
OOOHHH madame

La flamme en transe
E
   Une pas pire épopée

                                                                    94
   Am                    C
Ablazdablouéyaranachouizéyagaouère...
              G
OOOHHH madame

Et que se répande l'odeur d'la shit
E
   Une pas pire épopée

   Am                    C
Ablazdablouéyaranachouizéyagaouère...
              G
OOOHHH madame

Et que se répande le son d'la guit'
E
   Une pas pire épopée

Riff de l'intro 2x




                                        95
Daniel Bélanger - La Folie en Quatre

Intro et riff principal:

   1 + 2 + 3 + 4 +   1 + 2 + 3 + 4 +   1 + 2 + 3 + 4 +   1 + 2 + 3 + 4 +
   G                C#m                C                 B7
e|-----3-----3-3-3-|-----0-0-----0-0-|-----0-0-----0-0-|---2-2-2-----2-2-|
B|-----0-----0-0-0-|-----0-0-----0-0-|-----1-1-----1-1-|---0-0-0-----0-0-|
G|-----0-----0-0-0-|-----0-0-----0-0-|-----0-0-----0-0-|---2-2-2-----2-2-|
D|-----0-----0-0-0-|---------2-------|---------0h2-----|---------1-------|
A|-----2-----2-2-2-|-4---------------|-3---------------|-2---------------|
E|-3---3-----3-3-3-|-----------------|-----------------|-----------------|


   1 + 2 + 3 + 4 +   1 + 2 + 3 + 4 +   1 + 2 + 3 + 4 +   1 + 2 + 3 + 4 +
   Em                C                 G                 D
e|-----0-----0-0-0-|-----0-0-----0-0-|-----3-----3-3-3-|-----2----2-2-2--|
B|-----0-----0-0-0-|-----1-1-----1-1-|-----0-----0-0-0-|-----3----3-3-3--|
G|-----0-----0-0-0-|-----0-0-----0-0-|-----0-----0-0-0-|-----2----2-2-2--|
D|-----2-----2-2-2-|---------0h2-----|-----0-----0-0-0-|-0---------------|
A|-----2-----2-2-2-|-3---------------|-----2-----2-2-2-|-----------------|
E|-0---0-----0-0-0-|-----------------|-3---3-----3-3-3-|-----------------|


        G                        C#m        C
S'il fallait qu'un de ces quatre
B7                    Em    C      G        D
Mon âme se disperse
          G                    C#m        C
Bien avant qu'elle ne s'écarte
B7              Em        C      G      D
Du corps qui la berce
             G                     G/F#                  Em
Qu'un de ces quatre, qu'un de ces jours, la folie...


(Riff principal avec des "hou")

        G                       C#m   C
S'il fallait qu'à cause d'elle
                 B7      Em       C   G     D
Ton nom s'efface de ma mémoire
             G                  C#m   C
Que si facilement ma cervelle
          B7          Em      C     G    D
Se répète du matin au soir
               G                      G/F#         Em
S'il fallait qu'un jour ce jour se jure de ma folie...


(Riff principal avec des "hou")

G        G/F#        Em




                                                                             96
          G           C#m           C
En somme si mon âme oublie ton âme
                B7            Em    C     G      D
Et que mes yeux oublient tes yeux
        G                 C#m
Ce sera le fruit de la démence
            C      B7     Em     C    G     D
Et non la violence d'un aveu
              G               G/F#          Em
Alors avant qu'un de ces jours, la folie...
   G
Je t'aime...

e|-3-0-3-0-----|-----3----------------
B|---------3-0-|-----0----------------
G|-------------|-----0----------------
D|-------------|-----0---...----------
A|-------------|-----2----------------
E|-------------|-3---3----------------


(riff principal)

G    G/F#   Em            G




                                                     97
Daniel Bélanger - Le Parapluie

      Bm   C#m    D     E7    F#    E     G
e|----------------------7-----2-----0-----3----
B|----3-----5-----7-----9-----2-----0-----0----
G|----x-----x-----x-----7-----3-----1-----0----
D|----4-----6-----7-----9-----4-----2-----0----
A|----2-----4-----5-----7-----4-----2-----2----
E|----------------------------2-----0-----3----

Intro: ooooooooooouh..
Bm      C#m     D          C#m
Bm      C#m     D          E7
Bm      C#m     D          C#m
Bm      C#m     D          E7


Bm              C#m              D
Fragile petit matin sans pluie
     C#m            Bm   C#m       D  E7
Que mon parapluie garde en respect
Bm               C#m           D
   Mais le ciel est au chagrin
         C#m              Bm C#m          D   E7
Et s'il avait deux mains, il chagrinerait
    F#                           E
Je marche inquiété de me noyer dans l'orage
             Bm
Et je compte au passage
                F#
Les chauffards qui ont le doigt dans le nez


Bm         C#m     D       C#m
Bm         C#m     D       E7


Bm           C#m        D
Arrive rempli l'autocar
     C#m                  Bm    C#m        D   E7
J'y monte pour m'asseoir mais reste debout
Bm               C#m                D
   C'est comme être cent milliards
         C#m              Bm C#m             D    E7
Sur la lune pour un soir ça tire dans le cou
      F#                              E
Je regarde les aiguilles de mon temps
                             Bm
J'ai une fille dans le sang
                       F#
Si j'arrive en retard, elle va m'engueuler


Bm         C#m     D       C#m


E
     Et ça sent la poussière



                                                       98
Le vent soulève la terre
Bm    C#m             D      E7
   de chastes baisers
E                                      G
   Parce que je suis libre comme l'air
                         Bm
Libre de faire demi-tour
                  F#
J'vais continuer, continuer


Bm         C#m     D       C#m
Bm         C#m     D       E7

oooooooouh...
Bm      C#m        D       C#m
Bm      C#m        D       E7
Bm      C#m        D       C#m
Bm      C#m        D       E7


Bm         C#m      D
Et puis à la sortie
       C#m              Bm C#m           D   E7
J'ai plus de parapluie, je suis stupétri
Bm         C#m                  D
   M'apostrophe une jeune fille
     C#m                  Bm      C#m        D    E7
Une maille à la cheville, belle, elle me dit
    F#                       E
Pardon cher monsieur est-ce à vous ceci
                Bm                 F#
J'prends un air ébahi, je m'écris

Ah! Mon parapluie!


Bm         C#m     D       C#m


         F#
Elle l'a trouvé par terre
              E
Comme un coeur presque ouvert
              Bm
Comme le mien pour ses yeux verts
              F#
Pourquoi faut-il que le temps file

E
     Et ça sent la poussière

Le vent soulève la terre
Bm    C#m             D      E7
   de chastes baisers
E                                      G
   Parce que je suis libre comme l'air
                         Bm
Libre de faire demi-tour
                  F#
J'vais continuer, continuer
                                                       99
Bm         C#m     D       C#m
Bm         C#m     D       E7


    Bm               C#m             D
Et comme un bandit de grand chemin
        C#m          Bm          C#m         D  E7
J'continue l'air malin, l'air de tout savoir
Bm          C#m                D
   Mais au fond je n'sais rien
       C#m          Bm
Enfin presque rien
                C#m               D    E7
Une coche au-dessus d'une poire
             F#                         E
Mais c'est bien suffisant pour aimer tendrement
         Bm
Et avoir une idée
              F#
De ce qu'est la liberté


Bm         C#m     D       C#m


E
     Et ça sent la poussière

Le vent embrasse la terre
Bm    C#m             D      E7
   de chastes baisers
E                                      G
   Parce que je suis libre comme l'air
                         Bm
Libre de faire demi-tour
                 E
J'vais continuer et ça sent la poussière

Le vent embrasse la terre
Bm    C#m             D      E7
   de chastes baisers
E                                      G
   Parce que je suis libre comme l'air
                         Bm
Libre de faire demi-tour
                  F#
J'vais continuer, continuer


Bm         C#m     D       C#m
                                 Continuer..
Bm         C#m     D       E7
                                 Continuer...

Bm         C#m     D       C#m
Bm         C#m     D       E7

oooooooooouh...
Bm      C#m     D          C#m
Bm      C#m     D          E7       4x

                                                     100
E7 <- final




              101
Daniel Bélanger - Les Deux Printemps

    Am     AmM7   B7(+5)    B7    Em EmM7 F#7(+5) F#7 Bm G      D   A   E
e|-5--0----5--0----7--3----7--2---0----0-----2------2---2---3---2---0---0-|
B|-5--1----5--1----8--0----7--0---0----0-----3------2---3---3---3---2---0-|
G|-5--2----5--1----8--2----8--2---0----0-----3------3---4---0---2---2---1-|
D|-7--2----6--2----7--1----7--1---2----1-----2------2---4---0---0---2---2-|
A|-7--0----7--0----9--2----9--2---2----2-----4------4---2---2-------0---2-|
E|-5-------5-------7-------7------0----0-----2------2-------3-----------0-|

    Am                 AmM7                B7(+5)            B7
Ses yeux sont deux printemps qui m'font sourire et ça m'fait rire
    Em                EmM7                    F#7(+5)             F#7
Ses joues sont des torrents, les miennes s'y baignent mais encore pire
    Bm            F#7              G
Son coeur est une fête, le mien ne veut plus en sortir
            D              A         E      G             D         E
Elle est la plus belle saison de ma vie, la plus belle saison de ma vie

Am             AmM7              B7(+5)            B7
C'est un tourbillon, un grand vertige complètement doux
   Em                 EmM7            F#7(+5)             F#7
On dit qu'en haute voltige on peut tomber et s'rompre le cou
      Bm              F#7          G
C'est pas mon premier vol, arrêtez bande de jaloux
         D             A         E       G              D
C'est la plus belle saison de ma vie, la plus belle saison de ma vie


Ligne (2x):

e|-------------------------------|--------------------------------------|
B|-12----10-----10h12p10-9-----5-|-12----10------10h12p10-9-----5b6r5---|
G|-------------------------------|--------------------------------------|
D|-------------------------------|--------------------------------------|
A|-------------------------------|--------------------------------------|
E|-------------------------------|--------------------------------------|

    Am                 AmM7                 B7(+5)         B7
Nos heures sont des rivières qui courent en une folle frénésie
   Em               EmM7              F#7(+5)          F#7
L'amour est liquide clair et nos deux corps sont amphibies
   Bm              F#7                G
La terre est un brasier, mais pour un moment l'oublier
         D              A        E       G              D        E
C'est la plus belle saison de ma vie, la plus belle saison de ma vie

        Am               AmM7        B7(+5)         B7
Qu'elle ne plaise à personne ni du visage ni de l'esprit
Em                EmM7              F#7(+5)              F#7
Restez en votre automne, l'été tout l'an m'fait plus envie
   Bm                         F#7           G
Persuadez-vous de mes deux yeux fermés, j'affirme en toute cécité
        D              A          E     G              D
T'es la plus belle saison de ma vie, la plus belle saison de ma vie


Ligne (2x)



                                                                              102
    Am               AmM7             B7(+5)             B7
Y a toujours des noirceurs pour assombrir quelques beautés
    Em            EmM7                     F#7(+5) F#7
Des êtres qui ont peur, qui veulent vous en contaminer
   Bm            F#7                G
Me protéger des loups, moi qui n'en compte que des amis
        D              A        E        G             D        E
T'es la plus belle saison de ma vie, la plus belle saison de ma vie

      Am              AmM7             B7(+5)   B7
Nous serons vieux et frêles, peut-être même séparés
     Em        EmM7        F#7(+5)   F#7
Nos têtes pêle-même, incapables et usées
      G             D                    A
Mais aujourd'hui je t'aime, aujourd'hui pour l'éternité
         G             D           E     G            D         E
T'es la plus belle saison de ma vie, la plus belle saison de ma vie
   G             D           E
La plus belle saison de ma vie




                                                                      103
Daniel Bélanger - Les Temps Fous

   GM7 EM7    Bm   Bb   A   Am9   D Dsus4    E   Em7   GM7x FM7    CM7
e|--0----0----7----6----5----7----2----3-----0----0-----2-----0-----0-|
B|--0----0----7----6----5----8----3----3-----0----3-----3-----1-----0-|
G|--11---8----7----7----6----9----2----2-----1----0-----4-----2-----4-|
D|--9----6----9----8----7----10---0----0-----2----2-----5-----3-----2-|
A|--10---7----9----8----7----0---------------2----2-----------------3-|
E|--0----0----7----6----5--------------------0----0-----------------0-|

Riff 1 (R1)
   1 + 2 + 3 + 4 +   1 + 2 + 3 + 4 +
e|-0---0-0-0---0-0-|-0---0-0-0---0-0-|
B|-2---2-2-3---3-3-|-5---5-5-7---7-7-|
G|-0---0-0-0---0-0-|-0---0-0-0---0-0-|
D|-2---2-2-2---2-2-|-5---5-5-7---7-7-|
A|-0---0-0-0---0-0-|-0---0-0-0---0-0-|
E|-----------------|-----------------|


Intro (et rythme de base): 2x

   GM7                                   EM7
    1   +   2   +   3    +   4    +       1   +   2   +   3   +   4   +
e|----------0-----0---0--0-----0--0--0--|---------0-----0---0-0-----0-0-0--|
B|----------0-----0---0--0-----0--0--0--|---------0-----0---0-0-----0-0-0--|
G|o---------11----11--11-11----11-11-11-|---------8-----8---8-8-----8-8-8-o|
D|o---------9-----9---9--9-----9--9--9--|---------6-----6---6-6-----6-6-6-o|
A|----------10----10--10-10----10-10-10-|---------7-----7---7-7-----7-7-7--|
E|--0-------0-----0---0--0-----0--0--0--|-0-------0-----0---0-0-----0-0-0--|

GM7                          EM7
 Il pleut des années liquides
GM7                        EM7
 Sur tes joues deux continents
GM7                         EM7
 L'amour nous fait translucides
GM7                  EM7
 Ton nez joue à l'océan
Bm                      Bb          A
 Ton corps est un millénaire Et mes yeux un trajet lumière

GM7                       EM7
 Tes cheveux font des anguilles
GM7                               EM7
 Sur mon coeur qui n'est plus rien
GM7                     EM7
 Qu'une horloge sans aiguilles
GM7                           EM7
 Une misère s'en ferait du bien
Bm                   Bb             A
 Tu habites un projectile Qui s'éloigne et moi je suis immobile




                                                                               104
Am9                       D             Dsus4       D
  Sentir ta main sur ma joue Ne pas la perdre comme on perd tout
E                     Em7          R1
  Les temps sont fous     Ouh! Aide-moi
Am9                             D             Dsus4   D
  Pour que demain s'empare de nous, Souffle, souffle dans mon cou
E                     Em7          R1
  Les temps sont fous     Ouh! Aide-moi
Am9
  Sentir ta main sur ma joue
GM7x
  Souffle, souffle dans mon cou
FM7
  Que vents emportent les temps fous

GM7   EM7   GM7   EM7

GM7                          EM7
 Sur un banc mat de la ville
GM7                     EM7
 Un rêve fait la statue
GM7                         EM7
 C'est le mien pauvre imbécile
GM7                       EM7...
 Du temps se moque dessus

Am9                       D             Dsus4       D
  Sentir ta main sur ma joue Ne pas la perdre comme on perd tout
E                     Em7          R1
  Les temps sont fous     Ouh! Aide-moi
Am9                             D             Dsus4   D
  Pour que demain s'empare de nous, Souffle, souffle dans mon cou
E                     Em7          R1
  Les temps sont fous     Ouh! Aide-moi

Am9                       D             Dsus4       D
  Sentir ta main sur ma joue Ne pas la perdre comme on perd tout
E                     Em7          R1
  Les temps sont fous     Ouh! Aide-moi
Am9                             D             Dsus4  D
  Pour que demain s'empare de nous, Souffle, souffle dans mon cou
E                     Em7          R1
  Les temps sont fous     Ouh! Aide-moi
Am9
  Sentir ta main sur ma joue
GM7x
  Souffle, souffle dans mon cou
FM7
  Que vents emportent les temps fous

GM7   EM7   CM7   EM7

GM7                     EM7
 Sentir ta main sur ma joue

CM7                         EM7
 Souffle, souffle dans mon cou

CM7                  EM7
 Les temps sont fous

                                                                    105
Daniel Bélanger - Opium

  Cadd9 D Dsus2 Em Asus4 A         Bm   G5   A5 F#5 G      F#   E   Esus4
e|--3----2----0----0-----0----0----2------------------3----2----0-----0--|
B|--3----3----3----0-----3----2----3----3----5----2---0----2----0-----0--|
G|--0----2----2----0-----2----2----4----x----x----x---0----3----1-----2--|
D|--2----0----0----2-----2----2----4----5----7----4---0----4----2-----2--|
A|--3--------------2-----0----0----2----5----7----4---2----4----2-----2--|
E|-----------------0----------------------------------3----2----0--------|

Riff 1: R1 -> G5 A5 G5 F#5


Intro: Cadd9       (D   Dsus2    D   Dsus2       D)      Cadd9     D


Em   Asus4     A   Bm    R1          2x

Em    Asus4 A     Bm R1 Em                  Asus4 A Bm                R1
Opium dans le ciel,          formes rondes,             formes belles
Em            Asus4 A     Bm          R1------- Em Asus4 A Bm R1
J'ai des amis qui en abuse mais moi, ma bohème s'use
Em        Asus4 A     Bm R1   Em              Asus4 A    Bm R1
Voie lactée émeraude,          la séance est avant l'aube
Em                Asus4 A          Bm R1------- Em Asus4 A Bm R1
Les insomniaques s'amusent mais moi, ma bohème s'use
Em         G        D        A Asus4 A       Em       G     D      E F#
Mais moi ma bohème s'use...

Bm              E               G D              Dsus2
La terre pivote et autour d'elle,
A                  E  G   D A
  Des âmes flânent
Bm            E             G   Esus4            E    Em
Une âme espère et l'autre rêve,                            Des âmes planent

Em             Asus4 A    Bm    R1  Em              Asus4 A               Bm           R1
L'espace garde en otage                  le lunatique                     en son ouvrage
Em               Asus4 A                Bm
Et le dauphin flou sous l'hymen d'eau
            R1------------- Em Asus4 A Bm R1
Que la lune suit de ses flambeaux
Em         Asus4 A        Bm R1 Em                  Asus4 A                   Bm              R1
Vous les bonheurs célestes,            vous qui veniez                        dans ma cambuse
Em                   Asus4 A                    Bm
M'aimez-vous encore, aimez-vous ce qu'il reste
                      R1-------------- Em Asus4 A Bm R1
Une fois que le temps prend l'homme et l'use?
Em          G                 D         A Asus4 A      Em G                   D   E   F#
Que le temps prend l'homme et l'use...


Bm              E                   G     D      Dsus2
La terre pivote et autour     d'elle,
A                  E  G       D A
  Des âmes flânent
Bm            E                 G   D         Dsus2
Une âme espère et l'autre     rêve,
A                  E  G       D A
  Des âmes planent

                                                                                                   106
Répéter à volonté...




                       107
Daniel Bélanger - Sèche Tes Pleurs

Cette chanson se joue avec un capo à la seconde frette, mais tout a été écrit en ne tenant
pas compte de ce capo.

   Am    G     C     E     Dm   Dsus2/F# Dsus2/F#
e|-0-----3-----0-----0-----1-------0---------0-----|
B|-1-----0-----1-----0-----3-------3---------3-----|
G|-2-----0-----0-----1-----2-------2---------2-----|
D|-2-----0-----2-----2-----0-------0---------0-----|
A|-0-----2-----3-----2-------------x---------x-----|
E|-------3-----------0-------------2---------1-----|


Intro (rythme de base):

    1 + 2 + 3 + 4 +   1 + 2 + 3 + 4 +
e|------0-----0-0-0-|-----0-----0------|
B|------1-----1-1-1-|-----1-----1------|
G|o-----2-----2-2-2-|-----2-----2-----o|
D|o-----2-----2-2-2-|-----2-----2-0h2-o|
A|--0---------------|-0----------------|
E|------------------|------------------|

Am                       G
J'ai jamais vu une fille pleurer autant pour un garçon
C                          Am G G E
(J'ai) jamais vu l'amour             créer de la haine de cette façon
Am                  G
Ses chagrins de jour vont finir dans ceux de la nuit
C            E
Faut la voir marcher d'un pas lourd
Am              G                 Dm
Comme si chaque pied pesait sur lui

          E                 Am      Dsus2/F#    Dsus2/F   Am
Sèche tes pleurs, sèche tes pleurs, j't'en prie sèche tes pleurs

Am                           G
Il y a quinze jours est parti celui qu'elle voulait pour longtemps
C               Am G G E                                  Am
Est parti celui          dont elle souhaite la mort maintenant

Qu'il crève, mieux, qu'il souffre
G                                  C
Qu'une fille le largue par-dessus bord
             E                    Am
Que dans ses larmes comme moi s'étouffe
                      G
Que le sud de la fille lui fasse du nord

Dm        E                 Am      Dsus2/F#    Dsus2/F   Am
Sèche tes pleurs, sèche tes pleurs, j't'en prie sèche tes pleurs

Dsus2/F#    Dsus2/F    Am




                                                                                         108
Am                           G                                 C
À qui veut bien l'entendre, elle en dit du mal autant qu'elle peut
                       Am G G E                                        Am
Le con, le chien, le salaud.       Pas de gentillesse, pas de souvenir tendre
                           G                             C
Et pleure et pleure encore qu'avec toutes les larmes qui tombent
             E          Am               G               Dm
J'ai pensé calmer mes remords et fournir en eau le tiers monde

          E                     Am        Dsus2/F#      Dsus2/F     Dm
Sèche tes pleurs, sèche tes     pleurs,   j't'en prie   sèche tes   pleurs
          E                     Am        Dsus2/F#      Dsus2/F     Am
Sèche tes pleurs, sèche tes     pleurs,   j't'en prie   sèche tes   pleurs

Am

Am                           G                           C
Qui je vois c't'après-midi? Son pauvre diable tout aviné
                           Am G G E                               Am
Je l'aime et je m'ennuie            Pourquoi tu vas pas la retrouver?
                         G                             C
Et je me disais tout bas vas-y elle se meurt de te revoir
           E                   Am             G                Dm
Cours-y me rendre service à moi, boucher l'affluent d'la mer Noire

            E                   Am      Dsus2/F#    Dsus2/F    Dm
Sèche tes   pleurs,   sèche tes pleurs, j't'en prie sèche tes pleurs
Dm          E                   Am      Dsus2/F#    Dsus2/F    Dm
Sèche tes   pleurs,   sèche tes pleurs, j't'en prie sèche tes pleurs
Dm          E                  Am      Dsus2/F# Dsus2/F     Am
Sèche tes   pleurs,   sèche tes pleurs, sèche tes pleurs ma soeur
Dsus2/F#    Dsus2/F      Am
Sèche tes   pleurs,   ma soeur...
Dsus2/F#    Dsus2/F      Am
Sèche tes   pleurs,   ma soeur...

Dsus2/F#    Dsus2/F
(Finale)




                                                                                109
Dave Brubeck - Take Five

Shuffle beat


Accompagnement:

   Ebm7        Bbm7
    1 + 2 + 3 + 4 + 5 +
e|-----------------------|
B|----7-----7-------6----|
G|o---6-----6-------6---o|
D|o---4-----4-------6---o|
A|--6-----6---------4----|
E|--------------6--------|


 Cbmaj7       Abm6      Bbm7        Ebm7      Abm7        Db7
   1 + 2 + 3 + 4 + 5 +   1 + 2 + 3 + 4 + 5 +   1 + 2 + 3 + 4 + 5 +
e|---------------------|---------------------|---------------------|
B|---7-----7---4---4---|---6-----6---7---7---|---4-----4---4---4---|
G|---8-----8---4---4---|---6-----6---6---6---|---4-----4---4---4---|
D|---8-----8---3---3---|---6-----6---4---4---|---4-----4---3---3---|
A|---------------------|-------------6---6---|-------------4---4---|
E|-7-----7-----4---4---|-6-----6-------------|-4-----4-------------|

 Gbmaj7                Cbmaj7       Abm6      Bbm7        Ebm7
   1 + 2 + 3 + 4 + 5 +   1 + 2 + 3 + 4 + 5 +   1 + 2 + 3 + 4 + 5 +
e|---------------------|---------------------|---------------------|
B|---2-----2---2---2---|---4-----4---4---4---|---6-----6---7---7---|
G|---3-----3---3---3---|---3-----3---4---4---|---6-----6---6---6---|
D|---3-----3---3---3---|---4-----4---3---3---|---6-----6---4---4---|
A|---------------------|-2-----2-------------|-------------6---6---|
E|-2-----2-----2---2---|-------------4---4---|-6-----6-------------|

  Abm7        Db7       Fm7         Bb7
   1 + 2 + 3 + 4 + 5 +   1 + 2 + 3 + 4 + 5 +
e|---------------------|---------------------|
B|---4-----4---4---4---|---1-----1---6---6---|
G|---4-----4---4---4---|---1-----1---7---7---|
D|---4-----4---3---3---|---1-----1---6---6---|
A|-------------4---4---|---------------------|
E|-4-----4-------------|-1-----1-----6---6---|


Mélodie:
  Ebm7        Bbm7      Ebm7        Bbm7      Ebm7        Bbm7
   1 + 2 + 3 + 4 + 5 +   1 + 2 + 3 + 4 + 5 +   1 + 2 + 3 + 4 - + - 5 +
e|---------------------|---------------------|-------------------------|
B|---------------------|---------------------|-------------------------|
G|-------------------1-|-2-3-2-1-------------|-------------------------|
D|---------------1-4---|---------4-----------|-1-----------3h4p3p1-----|
A|-------------1-------|-------------1---4---|---------------------4---|
E|---------------------|---------------------|-------------------------|




                                                                           110
  Ebm7        Bbm7          Ebm7        Bbm7      Ebm7        Bbm7
   1 + 2 + 3 + 4 - + - 5 +   1 + 2 + 3 + 4 + 5 +   1 + 2 + 3 + 4 + 5 +
e|-------------------------|---------------------|---------------------|
B|-------------------------|---------------------|---------------------|
G|-------------------------|-------------------1-|-2-3-2-1-------------|
D|-1-----------------------|---------------1-4---|---------4-----------|
A|-------------3h4p3p1-----|-1-----------1-------|-------------1---4---|
E|---------------------1---|---------------------|---------------------|

  Ebm7        Bbm7          Ebm7        Bbm7          Ebm7        Bbm7
   1 + 2 + 3 + 4 - + - 5 +   1 + 2 + 3 + 4 - + - 5 +   1 + 2 + 3 + 4 + 5 +
e|-------------------------|-------------------------|---------------------|
B|-------------------------|-------------------------|---------------------|
G|-------------------------|-------------------------|---------------------|
D|-1-----------------------|-------------3h4p3p1-----|-1-------------------|
A|-------------3h4p3p1-----|-1-------------------1---|---------------------|
E|---------------------1---|-------------------------|---------------------|


 Cbmaj7       Abm6       Bbm7        Ebm7      Abm7        Db7
   1 + 2 + 3 + 4 + 5 +    1 + 2 + 3 + 4 + 5 +   1 + 2 + 3 + 4 + 5 +
e|----------------------|---------------------|---------------------|
B|---7------------------|---6-----------------|---4-----------------|
G|-8-----8--------------|-6-----6-------------|-4-----4-----------2-|
D|---------9---6-8-9-10-|---------8---4-6-7-8-|---------6---3-4-6---|
A|----------------------|---------------------|---------------------|
E|----------------------|---------------------|---------------------|

 Gbmaj7                Cbmaj7       Abm6       Bbm7        Ebm7
   1 + 2 + 3 + 4 + 5 +   1 + 2 + 3 + 4 + 5 +    1 + 2 + 3 + 4 + 5 +
e|---------------------|----------------------|---------------------|
B|---------------------|---7------------------|---6-----------------|
G|-3-2-3-4-6---6-5-6-7-|-8-----8--------------|-6-----6-------------|
D|---------------------|---------9---6-8-9-10-|---------8---4-6-7-8-|
A|---------------------|----------------------|---------------------|
E|---------------------|----------------------|---------------------|

  Abm7        Db7       Fm7         Bb7
   1 + 2 + 3 + 4 + 5 +   1 + 2 + 3 + 4 + 5 +
e|---------------------|---------------------|
B|---4-----------------|---------------------|
G|-4-----4---------6-4-|-3-------------------|    on revient à
D|---------6---3-6-----|-------------...-----|   l'autre mélodie
A|---------------------|---------------------|
E|---------------------|---------------------|




                                                                               111
David Bowie - Space Oddity

Intro:
Em C     Em   C
Em C

                        Em     C                       Em
Ground control to Major Tom    Ground control to Major Tom
Am        Am7/G             D7
Take your protein pills and put your helmet on
C                       Em     C                             Em
Ground control to Major Tom    Commencing countdown engine's on
Am      Am7/G          D7
Check ignition and may God's love be with you


C                                E7                         F
This is ground control to Major Tom, you've really made the grade
        Fm             C/E                   F
And the papers want to know whose shirts you wear,
         Fm                 C/E           F
Now it's time to leave the capsule if you dare
C                               E7                            F
This is Major Tom to ground control, I'm stepping through the door
        Fm              C/E           F
And I'm floating in the most peculiar way
        Fm              C/E         F
and the stars look very difeerent today


Fmaj7     Em                         Fmaj7         Em
Here am I floating round my tin can, far above the world
Bbmaj7          Am               G             F
Planet Earth is blue and there's nothing I can do

C   F    G   A A
C   F    G   A A
Fmaj7    Em7     A      C       D       E


C                                        E7                    F
Though I'm passed one hundred thousand miles, I'm feeling very still
      Fm                  C/E                F
And I think my spaceship knows which way to go,
         Fm             C              F
Tell my wife I love her very much she knows
G                 E7
Ground control to Major Tom:
     Am                       Am7/G
Your circuit's dead, there's something wong.
         D7
Can you hear me Major Tom?
         C/G
Can you hear me Major Tom?
         G
Can you hear me Major Tom? Can you ...




                                                                       112
Fmaj7     Em                    Fmaj7         Em
Here am I sitting in a tin can, far above the moon
Bbmaj7          Am               G             F
Planet Earth is blue and there's nothing I can do


C   F   G    A A
C   F   G    A A


Fmaj7   Em
Fmaj7   Em         ...




                                                     113
Elvis Presley - Blue Christmas

      E     B7    A    Abx    Gx   F#7 Bbdim
e|----0-----2-----0-----x-----x-----2-----0----
B|----0-----0-----2-----1-----0-----5-----2----
G|----1-----2-----2-----1-----0-----3-----0----
D|----2-----1-----2-----1-----0-----2-----2----
A|----2-----2-----0-----x-----x-----4-----1----
E|----0-----------------------------2----------


Riffs:
                             E                                  B7
   1 - + 2 - + 3 - + 4 - +   1 ...    1 - + 2 - + 3 - + 4 - +   1 ...
e|-------------------------|-0-----||-------------------------|-2-----||
B|-------------------------|-0-----||-------------------------|-0-----||
G|-------------------------|-1-----||-------------------------|-2-----||
D|-------------------------|-2-----||-------------------------|-1-----||
A|-------------------------|-2-----||---------------------0-1-|-2-----||
E|-------0-----2-----3-----|-0-----||-------------------------|-------||


         E                 B7
I have a blue Christmas without you
           B7                  E
I'll be so blue just thinking about you
     E         E7        A                    A Abx     Gx
Decorations of red, on a green Christmas tree
F#7                         B7
won't be the same dear, if you're not here with me


               E                       B7
And when those blue snow flakes start falling
                  B7                   E
that's when those blue memories start calling
          E       E7               A            Bbdim
you'll be doing alright, with your Christmas of white
    B7                               E
but I'll have a blue blue blue blue Christmas


              E                 B7
Ohh, ohh, ohh Ahhh    Ahh ahh a ahh ohhhh
          B7                    E
ohh, ohh, ohh Ahhhhh Ahh ahh a ahh ohhhh
          E        E7               A           Bbdim
You'll be doing allright with your Christmas of white
    B7                                E
but I'll have a blue blue blue blue Christmas


E <- final




                                                                           114
Eminem - Stan

Capo 4e frette, écrite par rapport à la 4e frette

      Em    C     D     G    D/F#
e|----0-----0-----2-----3-----2----
B|----0-----1-----3-----0-----3----
G|----0-----0-----2-----0-----2----
D|----2-----2-----0-----0-----0----
A|----2-----3-----------2-----0----
E|----0-----------------3-----2----


Riff 1 (a chaque 4e fois que tu répètes la progression)
   Em              C                 C#*             C
   1 - + - 2 - + - 3 - + - 4 - + -   1 - + - 2 - + - 3 - + - 4 - + -
e|-0-------0---0-0-----------------|---------------------------------|
B|-0-------0---0-0-----------------|---------------------------------|
G|-0-------0---0-0-----------------|---------------------------------|
D|-2-------2---2-2-----------------|---------------------------------|
A|-2-------2---2-2-3-----------3---|-4-----------4---3---------------|
E|-0-------0---0-0-----------------|-----------------------------3-2-|



Em              C                    D         G      D/F#       Em
  My tea's gone cold, I'm wonderin why I   got out of bed at all
                C                D         G       D/F#       Em
The morning rain clouds up my window and   I can't see at all
           C                D                    G         D/F#     Em
And even if I could it'd all be grey but   your picture on my wall
       C                C#*                C
It reminds me that it's not so bad, it's   not so bad

Em              C                    D         G      D/F#       Em
  My tea's gone cold, I'm wonderin why I   got out of bed at all
                C                D         G       D/F#       Em
The morning rain clouds up my window and   I can't see at all
           C                D                    G         D/F#     Em
And even if I could it'd all be grey but   your picture on my wall
       C                C#*                C
It reminds me that it's not so bad, it's   not so bad


(Même progression tout le long)

Dear Slim, I wrote you but you still ain't callin'
I left my cell, my pager, and my home phone at the bottom
I sent two letters back in autumn You must not have got them
There probably was a problem at the post office or somethin'
Sometimes I scribble addresses too sloppy when I jot 'em
But anyways, fuck it, what's been up man, how's your daughter?
My girlfriend's pregnant too, I'm 'bout to be a father
If I have a daughter, guess what I'm-a call her? I'ma
name her Bonnie




                                                                         115
I read about your uncle Ronnie too, I'm sorry
I had a friend kill himself over some bitch who didn't want him
I know you probably hear this everyday, but I'm your biggest fan
I even got the underground shit that you did with Scam
I got a room full of your posters and your pictures, man
I like the shit you did with Ruckus too, that shit was phat
Anyways, I hope you get this man, hit me back, just to chat
Truly yours, your biggest fan, this is Stan.


Em              C                    D         G      D/F#       Em
  My tea's gone cold, I'm wonderin why I   got out of bed at all
                C                D         G       D/F#       Em
The morning rain clouds up my window and   I can't see at all
           C                D                    G         D/F#     Em
And even if I could it'd all be grey but   your picture on my wall
       C                C#*                C
It reminds me that it's not so bad, it's   not so bad


Dear Slim, you still ain't called or wrote,
I hope you have the chance
I ain't mad, I just think it's fucked up you don't answer fans
If you didn't want to talk to me outside the concert
you didn't have to, but you could have signed an autograph
for Matthew
That's my little brother, man, he's only 6 years old
We waited in the blistering cold for you for 4 hours
and you just said no
That's pretty shitty man, you're like his fuckin' idol
He wants to be just like you man, he likes you more
than I do

I ain't that mad, though I just don't like bein' lied to
Remember when we met in Denver? You said if I write you
You would write back. See, I'm just like you in a way
I never knew my father neither
He used to always cheat on my mom and beat her
I can relate to what you're sayin' in your songs
So when I have a shitty day, I drift away and put 'em on
Cause I don't really got shit else, so that shit helps
when I'm depressed
I even got a tattoo with your name across the chest

Sometimes I even cut myself to see how much it bleeds
It's like adrenaline. The Pain is such a sudden rush for me
See, everything you say is real, and I respect you
'cause you tell it
My girlfriend's jealous 'cause I talk about you 24/7
But she don't know you like I know you, Slim, no one does
She don't know what it was like for people like us growing up
You've gotta call me man. I'll be the biggest fan
you'll ever lose
Sincerely yours, Stan. PS: We should be together too




                                                                         116
Em              C                    D         G      D/F#       Em
  My tea's gone cold, I'm wonderin why I   got out of bed at all
                C                D         G       D/F#       Em
The morning rain clouds up my window and   I can't see at all
           C                D                    G         D/F#     Em
And even if I could it'd all be grey but   your picture on my wall
       C                C#*                C
It reminds me that it's not so bad, it's   not so bad


Dear Mr. "I'm too good to call or write my fans"
This'll be the last package I ever send your ass
It's been six months and still no word. I don't deserve it?
I know you got my last two letters, I wrote the
addresses on 'em perfect
So this is my cassette I'm sending you. I hope you hear it
I'm in the car right now. I'm doing 90 on the freeway. hey slim I drank
a 5th a vodca dare me to drive?

you know that song by Phil Collins in the air in the night
about that guy who could've saved that other guy
from drowning but didn't and Phil saw it all and at his show he found
him thats kinda how this is you could've rescued me from drowning
but its too late I'm on a thousand gallons now i'm drowsy and all I
wanted was a lousy letter or a call i hope you know i ripped all your
pictures off the wall I loved you Slim, we could have been together
Think about it. You ruined it now, I hope you can't sleep and you dream about it

And when you dream, I hope you can't sleep and you scream about it
I hope your conscious eats at you and you can't breathe without me
See Slim, shut up bitch, I'm trying to talk
Hey Slim, that's my girlfriend screaming in the trunk
But I didn't slit her throat,
I just tied her up, see I ain't like you
'Cause if she suffocates, she'll suffer more,
then she'll die too
Well, gotta go, I'm almost at the bridge now
Oh shit, I forgot, how am I supposed to send this shit out?

Riff 2x de plus


Em              C                    D         G      D/F#       Em
  My tea's gone cold, I'm wonderin why I   got out of bed at all
                C                D         G       D/F#       Em
The morning rain clouds up my window and   I can't see at all
           C                D                    G         D/F#     Em
And even if I could it'd all be grey but   your picture on my wall
       C                C#*                C
It reminds me that it's not so bad, it's   not so bad




                                                                                   117
Dear Stan, I meant to write you sooner, but I've just been busy
You said your girlfriend's pregnant now, how far along is she?
Look, I'm really flattered you'd call your daughter that
And here's an autograph for your brother: I wrote it
on the Starter cap
I'm sorry I didn't see you at the show, I must have missed you
Don't think I did that shit intentionally, just to diss you
but what's this shit you said about you
like to cut your wrists too?
I say that shit just clownin' off,
c'mon, how fucked up is you?

You got some issues, Stan, I think you need some counselin'
To help your ass from bouncin' off the
walls when you get down some
And what's this shit about us meant to be together?
That's like the shit who'll make me not want us to meet each other
I really think you and your girlfriend need each other
Or maybe you just need to treat her better
I hope you get to read this letter
I just hope it reaches you in time
Before you hurt yourself, I think that you'd be doin' just fine
If you'd relax a little

I'm glad that I inspire you, but Stan Why are you so mad?
Try to understand that I do want you as a fan
I just don't want you to do some crazy shit
I seen this one shit on the news a couple weeks ago
that made me sick
Some dude was drunk and drove his car over a bridge
And had his girlfriend in the trunk and she was
pregnant with his kid
And in the car they found a tape but it didn't say who it was to
Come to think about it...his name was...it was you

Damn...




                                                                     118
Eric Clapton - Layla

Shuffle beat


      C#m7 G#7    G#7x   C5    D5    E     E7   F#m    B     A
e|-----4-----4-----4-----------------0-----0-----2-----2-----0-----|
B|-----5-----4-----7-----------------0-----3-----2-----4-----2-----|
G|-----4-----5-----5-----------------1-----1-----2-----4-----2-----|
D|-----6-----4-----4-----5-----7-----2-----0-----4-----4-----2-----|
A|-----4-----6-----6-----3-----5-----2-----2-----4-----2-----0-----|
E|-----------4-----4-----------------0-----0-----2-----------------|


Intro et riff du refrain:
           Dm      Bb        C       Dm                Bb        C       Dm
   + 3 +   1 + 2 + 3 + 4 +   1 + 2 + 3 + 4 +   1 + 2 + 3 + 4 +   1 + 2 + 3 + 4 +
e|-------|-----------------|-----------------|-----------------|-----------------|
B|-----3-|---3-------------|---------------3-|---3-------------|---------------3-|
G|-----2-|---2---3---3-3---|-5-5-5-7-------2-|---2---3---3-3---|-5---5-7-------2-|
D|-----0-|---0---3---3-3---|-5-5-5-7-------0-|---0---3---3-3---|-5---5-7-------0-|
A|-0h3---|-----3-1---1-1---|-3-3-3-5---0h3---|-----3-1---1-1---|-3-0-3-5---0h3---|
E|-------|-----------------|-----------------|-----------------|-----------------|

         Bb          C       Dm                Bb        C       A5 C5
   1 + 2 + 3 + 4 +   1 + 2 + 3 + 4 +   1 + 2 + 3 + 4 +   1 + 2 + 3 + 4 +
e|-----------------|-----------------|-----------------|-----------------|
B|---3-------------|---------------3-|---3-------------|-----------------|
G|---2---3---3-3---|-5-5-5-7-------2-|---2---3---3-3---|-5-5-5-----------|
D|---0---3---3-3---|-5-5-5-7-------0-|---0---3---3-3---|-5-5-5---2---5---|
A|-----3-1---1-1---|-3-3-3-5---0h3---|-----3-1---1-1---|-3-3-3---0---3---|
E|-----------------|-----------------|-----------------|-----------------|


Intro:
   C                 Dm
   1     + 2      + 3      + 4      +
e|-------------------------------------|
B|-------------------------------5--6--|
G|----------------------------7--------|
D|-------------------------7-----------|
A|-------------------------------------|
E|-------------------------------------|

   Dm                   Bb                  C                 Dm
   1        + 2      + 3      + 4      +    1     + 2      + 3      + 4      +
e|----------------------------------------|-------------------------------------|
B|-5h6p5----5--6--5--------------5--6-/8--|----6--8/10--------8--10/13----10-13-|
G|-------7-----------7--------------------|-------------------------------------|
D|----------------------------------------|-------------------------------------|
A|----------------------------------------|-------------------------------------|
E|----------------------------------------|-------------------------------------|




                                                                                     119
   Dm                Bb                        C                 Dm
   1     +        2     + 3      + 4      +    1     + 2      + 3      + 4      +
e|-10-12-10h12p10----10----------------------|-------------------------------------|
B|----------------13----13-10----10----------|----------------------------5--6--5--|
G|----------------------------------12----10-|-9-----10-9-----7--------7-----------|
D|-------------------------------------------|----------------------7--------------|
A|-------------------------------------------|-------------------------------------|
E|-------------------------------------------|-------------------------------------|

   Dm                Bb                  C                 Dm
   1     + 2      + 3      + 4      +    1     + 2      + 3      + 4      +
e|-------------------------------------|-------------------------------------|
B|-------------------------------------|-------------------------------------|
G|-7--------7--------------------------|-------------------------------------|
D|-------7--------5-----3-----3--5--3--|-------------------------------------|
A|-------------------------5-----------|-5--------5--------------------------|
E|-------------------------------------|-------------------------------------|



C#m7                                G#7    G#7x
     What will you do when you get lonely
C#m7        C5       D5    E     E7
     no one waiting by your side
F#m              B           E               A
     You've been running and hiding much too long
F#m                B                  E    (riff du refrain)
     You know it's just your foolish pride

   Dm    Bb          C             Dm
Layla,        you've got me on my knees
         Bb       C                Dm
Layla,        I'm begging darling please
         Bb   C                 Dm                     Bb         C   A5   C5
Layla,        darling won't you ease my worried mind

C#m7                          G#7    G#7x
     I tried to give you consolation
C#m7           C5          D5      E     E7
     When your old man had let you down
F#m         B      E                 A
     Like a fool I fell in love with you
F#m                B                   E      (riff du refrain)
     You turned my whole world upside down

   Dm    Bb          C             Dm
Layla,        you've got me on my knees
         Bb       C                Dm
Layla,        I'm begging darling please
         Bb   C                 Dm                     Bb         C   A5   C5
Layla,        darling won't you ease my worried mind

C#m7                                G#7     G#7x
     Let's make the best of the situation
C#m7           C5     D5   E     E7
     Before I finally go insane
F#m               B          E              A
     Please don't say we'll never find a way
F#m          B                 E        (riff du refrain)
     Tell me all my love's in vain

                                                                                       120
   Dm    Bb          C             Dm
Layla,        you've got me on my knees
         Bb       C                Dm
Layla,        I'm begging darling please
         Bb   C                 Dm                     Bb   C      Dm
Layla,        darling won't you ease my worried mind

   Dm    Bb          C             Dm
Layla,        you've got me on my knees
         Bb       C                Dm
Layla,        I'm begging darling please
         Bb   C                 Dm                     Bb   C      Dm
Layla,        darling won't you ease my worried mind


Solo:

   C                 Dm
   1     + 2      + 3      + 4      +
e|-------------------------5--5--------|
B|-------------------------6--6--------|
G|----------------------------------7--|
D|-------------------------------------|
A|-------------------------------------|
E|-------------------------------------|

   Dm                Bb                  C                 Dm
   1     + 2      + 3      + 4      +    1     + 2      + 3      + 4      +
e|-5-----5--5--------5-----------------|-------------------------------------|
B|-6-----6--6--------6-----------------|-------------------------------------|
G|----------------7-----------7--5-----|-------------------------------------|
D|----------------------------------7--|-6--5--3--5--3-----------3-----------|
A|-------------------------------------|----------------5-----------5--------|
E|-------------------------------------|-------------------------------------|

   Dm                Bb                  C                 Dm
   1     + 2      + 3      + 4      +    1     + 2      + 3      + 4      +
e|/8--8--8-/8--8--8-/8--8--8-/8--8--8--|/8--8--8-/8--8--8-/8--8--10----------|
B|/10-10-10/10-10-10/10-10-10/10-10-10-|/10-10-10/10-10-10/10-------8-----8--|
G|-------------------------------------|-------------------------------------|
D|-------------------------------------|-------------------------------------|
A|-------------------------------------|-------------------------------------|
E|-------------------------------------|-------------------------------------|

   Dm                Bb                        C                 Dm
   1     + 2      + 3      +        4     +    1     + 2      + 3      + 4      +
e|-------------------10-12-10h12p10----10----|-------------------------------------|
B|-------------10-13----------------13----13-|-10----10-10----10----11----10-------|
G|-10----10-12-------------------------------|----------------------------------12-|
D|-------------------------------------------|-------------------------------------|
A|-------------------------------------------|-------------------------------------|
E|-------------------------------------------|-------------------------------------|

   Dm                Bb                  C                       Dm
   1     + 2      + 3      + 4      +    1     +        2     + 3      + 4      +
e|-------------------------------------|-------------------------------------------|
B|-------------------------------------|-5--6--5-h6-p5-----------------------------|
G|-10----9-----7-/9--7--------5-----7--|----------------7--5-----------------------|
D|-------------------------------7-----|----------------------7--6--5--3--5--3-----|
A|-------------------------------------|----------------------------------------5--|
E|-------------------------------------|-------------------------------------------|
                                                                                       121
   Dm                Bb                  C                 Dm
   1     + 2      + 3      + 4      +    1     + 2      + 3      + 4      +
e|----------13----10----------------10-|-12---/12-10-------------------------|
B|-------------------------------13----|----------------13----10----10-------|
G|-------------------------------------|-------------------------13----------|
D|-------------------------------------|-------------------------------------|
A|-------------------------------------|-------------------------------------|
E|-------------------------------------|-------------------------------------|

   Dm                Bb                  C                 Dm
   1     + 2      + 3      + 4      +    1     + 2      + 3      + 4      +
e|----10----13----10-------------------|----15----15----15-13----------------|
B|-------------------------------13----|----------------------------------15-|
G|-------------------------------------|-------------------------------14----|
D|-------------------------------------|-------------------------------------|
A|-------------------------------------|-------------------------------------|
E|-------------------------------------|-------------------------------------|

   Dm                Bb                  C                 Dm
   1     + 2      + 3      + 4      +    1     + 2      + 3      + 4      +
e|-12-13-15----13-15----------12-13----|-10----------------------------------|
B|-------------------------------------|----13-10----------13----10----------|
G|-------------------------------------|----------12----10----12----12-10----|
D|-------------------------------------|----------------------------------12-|
A|-------------------------------------|-------------------------------------|
E|-------------------------------------|-------------------------------------|

   Dm                Bb                  C                 Dm
   1     + 2      + 3      + 4      +    1     + 2      + 3      + 4      +
e|-10-------------------------5--------|-------------------------------------|
B|-10----------10---/10-------5-h6-----|-------------------------------------|
G|-10----9-----9/10-/9--------------7--|-5-----------------------------------|
D|-------------------------------------|----7--6--5--------3-----------------|
A|-------------------------------------|----------------------------3-----5--|
E|-------------------------------------|-------------------------------------|



   Dm    Bb          C             Dm
Layla,        you've got me on my knees
         Bb       C                Dm
Layla,        I'm begging darling please
         Bb   C                 Dm                     Bb        C   Dm
Layla,        darling won't you ease my worried mind

   Dm    Bb          C            Dm
Layla,        you've got me on my knees
         Bb       C               Dm
Layla,        I'm begging darling please
         Bb   C                                 Dm <---- final
Layla,        darling won't you ease my worried mind




                                                                                 122
Eric Clapton - Tears In Heaven

Intro:

   +     1 + 2     + 3 + 4 +   1 + 2 + 3 + 4 +   1 + 2 + 3 + 4 +
e|-----|-------------0---0---|-----------------|-----------------|
B|-----|-----2h3p2---0---0-2-|-----2---2---2---|-3---3---3---3---|
G|-----|---2-------2-------2-|-----2---2---2---|-2---2---2---1---|
D|-----|---------------------|-----------------|-----------------|
A|-----|-0-------------------|-----------------|-----------------|
E|-0h2-|-------------4-4---2-|---2---2-0-0---0-|-2-2---2-0---0---|

                       \/ Début des paroles et du riff du couplet
   1 + 2 + 3 + 4 +     1 + 2     + 3 + 4 +   1 + 2 + 3 + 4 +
e|-------------------|-------------0---0---|-----------------|
B|-2---2---2---2-----|-----2h3p2---0---0-2-|-----2---2---2---|
G|-2---2---2---2-----|---2-------2-------2-|-----2---2---2---|
D|-------------------|---------------------|-----------------|
A|-0-0---0---0-------|-0-------------------|-----------------|
E|---------------0h2-|-------------4-4---2-|---2---2-0-0---0-|


   1 + 2 + 3 + 4 +   1 + 2 + 3 + 4 +   1 + 2     + 3 + 4 +
e|-------------0---|-----------------|-------------0---0---|
B|-3---3---2-3-----|-0---0---2---3---|-2---2h3p2---0---0-2-|
G|-2---2---2-------|-1---1---2---4---|-2---------2-------2-|
D|-0-0---0---------|-----------------|---------------------|
A|-----------------|----------/5-----|---0-----------------|
E|-----------------|-0-0---0---------|-------------4-4---2-|

                              Fin du riff du couplet \/
   1 + 2 + 3 + 4 +   1 + 2 + 3 + 4 +   1 + 2 + 3 + 4 +
e|-----------------|-------------0---|-----------------|
B|-----2---2---2---|-3---3---2-3-----|-0---0---2---3---|
G|-----2---2---2---|-2---2---2-------|-1---1---2---4---|
D|-----------------|-0-0---0---------|-----------------|
A|-----------------|-----------------|----------/5-----|
E|---2---2-0-0---0-|-----------------|-0-0---0---------|


   \/ Riff du refrain
   1 + 2 + 3 + 4 +    1 + 2 + 3 + 4 +  1 + 2 + 3 + 4 +   1 + 2 + 3 + 4 +
e|-2---2---2---2---|-1---1-------1---|-0---0---0---0---|-----------------|
B|-2---2---2---2---|-2---2-------2---|-2---2---2---2---|-2---2-----------|
G|-2---2---2---2---|-1---1-----1-----|-0---0---0---0---|-3---3---4---6---|
D|-----------------|-----------------|-----------------|-4---4---4---6---|
A|-----------------|-----------------|-----------------|-----------------|
E|---2---2---2---2-|---1---1-1-----1-|-0-0---0---0---0-|---2--/4--/6---6-|


   1 + 2 + 3 + 4 +   1 + 2 + 3 + 4 +
e|-----------------|-------------------|
B|-3---3---3---3---|---3-3---3---------|
G|-2---2---2---2---|---2-2---2---------|   retour au riff
D|-4---4---4---4---|---2-2---2---------|     de l'intro
A|---2---2---2---2-|-------------------|
E|-----------------|---------------0h2-|

Paroles:


                                                                             123
Would you know my name
If I saw you in heaven
Would it be the same
If I saw you in heaven

I must be strong and carry on
'Cause I know I don't belong hear in heaven

Would you hold my hand
If I saw you in heaven
Would you help me stand
If I saw you in heaven

I'll find my way throught night and day
'Cause I know I just can't stay hear in heaven

Bridge (les notes jouées sont très approximatives) :

         C      C/B        Am      D         G      G/F#
   +     1 + 2 + 3 + 4 +   1 + 2 + 3 + 4 +   1 + 2 + 3 + 4 +
e|-----|-----0-------0---|---------2---2---|-----3-------3---|
B|-----|-----1-------1---|-----1---3---3---|-----3-------3---|
G|-----|-----0-------0---|-----2---2---2---|-----0-------0---|
D|-----|---2-2-----0-0---|---2-2-2---0---0-|---0-0-----0-0---|
A|-0h2-|-3-----3-2-----0-|-----------------|-----2-----------|
E|-----|-----------------|-----------------|-3---3-3-2-----0-|

   Em      Am G/B    C      C/B        Am      D         G      G/F#
   1 + 2 + 3 + 4 +   1 + 2 + 3 + 4 +   1 + 2 + 3 + 4 +   1 + 2 + 3 + 4 +
e|-----0---0---3---|-----0-------0---|---------2---2---|-----3-------3-0-|
B|-----0---1---3---|-----1-------1---|-----1---3---3---|-----3-------3-0-|
G|-----0---2---0---|-----0-------0---|-----2---2---2---|-----0-------0-1-|
D|---2-2---2---0---|---2-2-----0-0---|---2-2-2---0---0-|---0-0-----0-0-2-|
A|-----2---0---2---|-3-----3-2-----0-|-----------------|-----2---------2-|
E|-----0-0---------|-----------------|-----------------|-3---3-3-2-----0-|

   E
   1 + 2 + 3 + 4 +
e|-----0---0---0-----|
B|-----0---0---0-----|
G|-----1---1---1-----|       suivi du riff du couplet
D|-----2---2---2-----|
A|-----2---2---2-----|
E|---0-0-0-0---0-0h2-|

Paroles du bridge:

Time   can   bring you down
Time   can   bend your knees
Time   can   break you heart
Have   you   begging please, begging please...


Après le riff du couplet, on revient au riff du refrain:

Beyond the door there's peace I'm sure
And I know there'll be no more tears in heaven




                                                                             124
Would you know my name
If I saw you in heaven
Would it be the same
If I saw you in heaven

I must be strong and carry on
'Cause I know I don't belong hear in heaven

                                                'Cause I know...
   +     1 + 2     + 3 + 4 +   1 + 2 + 3 + 4 +   1 + 2 + 3 + 4 +
e|-----|-------------0---0---|-----------------|-----------------|
B|-----|-----2h3p2---0---0-2-|-----2---2---2---|-3---3---3---3---|
G|-----|---2-------2-------2-|-----2---2---2---|-2---2---2---2---|
D|-----|---------------------|-----------------|-4---4---4---4---|
A|-----|-0-------------------|-----------------|---2---2---2---2-|
E|-0h2-|-------------4-4---2-|---2---2-0-0---0-|-----------------|


   1 + 2 + 3 + 4 +     1 + 2     + 3 + 4 +   1 + 2 + 3 + 4 +   1 + 2 + 3 + 4 +
e|-------------------|-------------0---0---|-----------------|-----------------|
B|---3-3---3---------|-----2h3p2---0---0-2-|-----2---2---2---|-3---3---3---3---|
G|---2-2---2---------|---2-------2-------2-|-----2---2---2---|-2---2---2---1---|
D|---2-2---2---------|---------------------|-----------------|-----------------|
A|-------------------|-0-------------------|-----------------|-----------------|
E|---------------0h2-|-------------4-4---2-|---2---2-0-0---0-|-2-2---2-0---0---|

   Finale...
e|--------------------------------
B|-2-------2-3-2h3p2--------------
G|-2-----2-----------2---2--------
D|-2---2---------------2------7---
A|-0-0---------------------/4-----
E|------------------------------5-




                                                                                   125
Everlast - What It's Like

Riff 1:
    Dm                              Fmaj7             C
    1 - + - 2 - + - 3 - + - 4 - + -   1 - + - 2 - + - 3 - + - 4 - + -
e|--------------3-------1---3p1-----|---------0-----0---------0-----0--|
B|----------3-------------------3p1-|---------1-----1---------1-----1--|
G|o-----2---------------------------|-----2---2-----2---------0-----0-o|
D|o-0-------------------------------|-3-------3-----3-----2---2-----2-o|
A|----------------------------------|-----------------3-------3-----3--|
E|----------------------------------|----------------------------------|


Riff 2:
    Dm                              Fmaj7             C
    1 - + - 2 - + - 3 - + - 4 - + -   1 - + - 2 - + - 3 - + - 4 - + -
e|--------------3-------1---3p1-----|---------0-----0-----0-----------|
B|----------3-------------------3p1-|---------1-----1-----1-----------|
G|o-----2---------------------------|-----2---2-----2-----0-----------|
D|o-0-------------------------------|-3-------3-----3-----2-----------|
A|----------------------------------|-----------------3---3---3/5\3---|
E|----------------------------------|---------------------------------|


Riff 3:
    Dm            Fmaj7               C               Dm
    1 - + - 2 - + - 3 - + - 4 - + -   1 - + - 2 - + - 3 - + - 4 - + -
e|----------1-----1---------0-----0-|---------0-----0---1-----3p1-0h1--|
B|----------3-----3---------1-----1-|---------1-----1---3-----3--------|
G|o---------2-----2---------2-----2-|---------0-----0---2-------------o|
D|o-0-------0-----0-3-------3-----3-|---------2-----2-----------------o|
A|----------------------------------|-3-------3-----3------------------|
E|----------------------------------|----------------------------------|


Riff 4:
   1 - + - 2 - + - 3 - + - 4 - + -   1 - + - 2 - + - 3 - + - 4 - + -
e|-------1---------------3---------|-------1---------------5---3-----|
B|-----------3-----3/5-------5-----|-----------3-----3/5-------------|
G|-----2-----------2/4-------------|-----2-----------2/4-------------|
D|-0---------------0---------------|-0---------------0---------------|
A|---------------------------------|---------------------------------|
E|---------------------------------|---------------------------------|


   1 - + - 2 - + - 3 - + - 4 - + -   1 - + - 2 - + - 3 - + - 4 - + -
e|-------1---------------3---------|-------1-------1-------1-------1-|
B|-----------3-----3/5-------5-----|-----------3-------3-------3-----|
G|-----2-----------2/4-------------|-----2---------------------------|
D|-0---------------0---------------|-0-------------------------------|
A|---------------------------------|---------------------------------|
E|---------------------------------|---------------------------------|




                                                                           126
Riff 5:
   Dm                              Fmaj7
   1 - + - 2 - + - 3 - + - 4 - + -   1 - + - 2 - + - 3 - + - 4 - + -
e|-------1-------1-------1---------|-------0-------0-------0---------|
B|-----------3-------3-------3-----|-----------1-------1-------1-----|
G|-----2-------2-------2-------2---|-----2-------2-------2-------2---|
D|-0-------------------------------|-3-------------------------------|
A|---------------------------------|---------------------------------|
E|---------------------------------|---------------------------------|

   Dm                              Fmaj7
   1 - + - 2 - + - 3 - + - 4 - + -   1 - + - 2 - + - 3 - + - 4 - + -
e|-------0-------0-------0---------|-------1-------1-------3---1-----|
B|-----------1-------1-------1-----|-----------3-------3-------------|
G|-----0-------0-------0-------0---|-----2-------2-------2-----------|
D|---------------------------------|-0-------------------------------|
A|-3-------------------------------|---------------------------------|
E|---------------------------------|---------------------------------|

   Dm                              Fmaj7
   1 - + - 2 - + - 3 - + - 4 - + -   1 - + - 2 - + - 3 - + - 4 - + -
e|-------1-------1-------1---------|-------0-------0-------0---------|
B|-----------3-------3-------3-----|-----------1-------1-------1-----|
G|-----2-------2-------2-------2---|-----2-------2-------2-------2---|
D|-0-------------------------------|-3-------------------------------|
A|---------------------------------|---------------------------------|
E|---------------------------------|---------------------------------|

   Dm                              Fmaj7
   1 - + - 2 - + - 3 - + - 4 - + -   1 - + - 2 - + - 3 - + - 4 - + -
e|-------0-------0-------0---------|-------1-------3---1-------1-----|
B|-----------1-------1-------1-----|-----------3-------------3-------|
G|-----0-------0-------0-------0---|-----2-------2---------2---------|
D|---------------------------------|-0-------------------------------|
A|-3-------------------------------|---------------------------------|
E|---------------------------------|---------------------------------|


Intro:

Riff 1 3x
Riff 2 1x


Riff 3:
Dm                    Fmaj7                  C                        Dm
   We've all seen the man at the liquor store beggin' for your change
Dm                    Fmaj7             C                       Dm
   The hair on his face is dirty, dreadlocked and full of mange
Dm            Fmaj7                   C                          Dm
   He ask the man for what he could spare with shame in his eyes
Dm        Fmaj7             C                  Dm
   Get a job you fuckin' slob's all he replied




                                                                           127
Dm        Fmaj7               C                        Dm
   God forbid you ever had to walk a mile in his shoes
Dm                        Fmaj7                C                      Dm
   'Cause then you really might know what it's like to sing the blues
Dm                 Fmaj7                C           Dm
   Then you really might know what it's like
Dm                 Fmaj7                C           Dm
   Then you really might know what it's like
Dm                 Fmaj7                C           Dm
   Then you really might know what it's like
Dm                 Fmaj7                C           Dm
   Then you really might know what it's like


Riff 4


Riff 3:
Dm          Fmaj7                      C                          Dm
   Mary got pregnant from a kid named Tom who said he was in love
Dm                             Fmaj7                   C                           Dm
   He said don't worry about a thing baby doll I'm the man you've been dreamin' of
Dm                  Fmaj7                  C                          Dm
   But three months later he said he won't date her or return her call
Dm                     Fmaj7               C                             Dm
   And she sweared god damn if I find that man I'm cuttin' off his balls
Dm                            Fmaj7                    C                                Dm
   And then she heads for the clinic and she gets some static walkin' through the doors
Dm                 Fmaj7                       C                                Dm
   They call her a killer, and they call her a sinner, and they call her a whore


Dm        Fmaj7               C                        Dm
   God forbid you ever had to walk a mile in her shoes
Dm                        Fmaj7                C                     Dm
   'Cause then you really might know what it's like to have to choose
Dm                 Fmaj7                C           Dm
   Then you really might know what it's like
Dm                 Fmaj7                C           Dm
   Then you really might know what it's like
Dm                 Fmaj7                C           Dm
   Then you really might know what it's like
Dm                 Fmaj7                C           Dm
   Then you really might know what it's like


Riff 1:
Dm                                                 Fmaj7                       C
   I've seen a rich man beg, I've seen a good man sin, I've seen a tough man cry
Dm                                       Fmaj7                    C
   I've seen a loser win and a sad man grin, I heard an honest man lie
Dm                                                     Fmaj7                   C
   I've seen the good side of bad and the down side of up and everything between
Dm                                                  Fmaj7                    C
   I licked the silver spoon, drank from the golden cup, smoked the finest green
Dm                                                  Fmaj7                        C
   I stroked the baddest dimes at least a couple of times before I broke their heart
Dm                                          Fmaj7                    C
   You know where it ends, yo, it usually depends on where you start


                                                                                             128
Riff 4


Riff 3:
Dm                       Fmaj7                     C                              Dm
   I knew this kid named Max, he used to get fat stacks out on the corner with drugs
Dm                         Fmaj7                     C                      Dm
   He liked to hang out late, he liked to get shit faced and keep pace with thugs
Dm                Fmaj7                     C                        Dm
   Until late one night there was a big gun fight, Max lost his head
Dm                   Fmaj7               C                          Dm
   He pulled out his chrome .45, talked some shit and wound up dead
Dm                      Fmaj7                   C                       Dm
   Now his wife and his kids are caught in the midst of all of his pain
Dm                            Fmaj7                     C                             Dm
   You know it crumbles that way at least that's what they say when you play the game


Dm        Fmaj7               C                        Dm
   God forbid you ever had to wake up to hear the news
Dm                        Fmaj7                C                    Dm
   'Cause then you really might know what it's like to have to lose
Dm                 Fmaj7                C           Dm
   Then you really might know what it's like
Dm                 Fmaj7                C           Dm
   Then you really might know what it's like
Dm                 Fmaj7                C           C
   Then you really might know what it's like           to have to lose


Riff 5... Fade out




                                                                                           129
Extreme - More Than Words

   Em    Bm   D/F#   G7    C     Cm    Cadd9/B
e|-0-----2-----2-----1-----0-----3--------3----|
B|-0-----3-----3-----0-----1-----4--------3----|
G|-0-----4-----2-----0-----0-----5--------0----|
D|-2-----4-----0-----0-----2-----5--------0----|
A|-2-----2-----0-----2-----3-----3--------2----|
E|-0-----------2-----3-------------------------|


Intro:
   1 + 2 + 3 + 4 +   1 + 2 + 3 + 4 +   1 + 2 + 3 + 4 +   1 + 2 + 3 + 4 +
   G           Cadd9              Am7        Cadd9 Am7         D Dsus4 G
e|---3-x-3---3-x-3-|---3-x---3-3-x-0-|---0-x---3-3-x-0-|---0-x-2---3-x-3-|
B|---3-x-3---3-x-3-|---3-x---3-3-x-1-|---1-x---3-3-x-1-|---1-x-3---3-x-3-|
G|---0-x-0---0-x-0-|---0-x---0-0-x-0-|---0-x---0-0-x-0-|---0-x-2---2-x-0-|
D|---0-x-0---0-x-2-|---2-x---2-2-x-2-|---2-x---2-2-x-2-|---2-x-0-----x-0-|
A|-----x-------x-3-|-----x---3---x-0-|-----x---3---x-0-|-----x-------x---|
E|-3---x-3-----x---|-----x-------x---|-----x-------x---|-----x-------x-3-|


G        Cadd9     Am7
Saying I love you is
Am7       Cadd9 Am7      D   Dsus4 G
Not the words I want to hear from you
                 Cadd9
It's not that I want you
Am7        Cadd9 Am7 D Dsus4 Em
Not to say but if you only knew
Bm Am7 Cadd9
How easy
D              G       D/F#     Em
It would be to show me how you feel

Bm        Am7        D            G7               C
More than words   is all you have to do to make it real

         Cm               G            Em
Then you wouldn't have to say that you love me
     Am7    D    G
'cos I'd already know

               D/F#      Em       Bm      C
What would you do if my heart was torn in two
                    Cadd9/B Am7             D   Dsus4 D   G
More than words to show you feel that your love for me is real
               D/F#      Em        Bm     C
What would you say if I took those words away
                  Cadd9/B     Am7         D             G
Then you couldn't make things new just by saying I love you


(jouer l'intro 2 fois, à la fin faire le petit "toc toc" en tapant avec le bout du doigt
sur la caisse de résonnace)




                                                                                           130
                Cadd9    Am7         Cadd9 Am7  D Dsus4 G
Now that I've tried to talk to you and make you understand
       Cadd9
All you have to do is
Am7          Cadd9    Am7         D    Dsus4 Em
Close your eyes and just reach out your hand
Bm Am7
And touch me
D     Dsus4 D          G     D/F#   Em
Hold me close, don't ever let me go
Bm         Am7
More than words
    D           G7             C
Is all I ever needed you to show
          Cm                 G
Than you wouldn't have to say
          Em
That you love me
      Am7    D     G
'Cos I'd already know

               D/F#      Em       Bm      C
What would you do if my heart was torn in two
                    Cadd9/B Am7             D   Dsus4 D   G
More than words to show you feel that your love for me is real
               D/F#      Em        Bm     C
What would you say if I took those words away
                  Cadd9/B     Am7         D             G
Then you couldn't make things new just by saying I love you

(Jouer l'intro jusqu'à la fin)




                                                                 131
Francis Cabrel - Je l'aime à mourir

Capot 5e fret

   C                 C/B               Am                Dm
   1 - + - 2 - + -   1 - + - 2 - + -   1 - + - 2 - + -   1 - + - 2 - + -
e|---0-------0-----|---0-------0-----|---0-------0-----|---1-------1-----|
B|-----1-------1---|-----1-------1---|-----1-------1---|-----3-------3---|
G|-------0-------0-|-------0-------0-|-------2-------2-|-------2-------2-|
D|---------2-------|---------0-------|---------2-------|-0---------------|
A|-3---------------|-2---------------|-0---------------|---------0-------|
E|-----------------|-----------------|-----------------|-----------------|

   F                 G                 E                 Bb
   1 - + - 2 - + -   1 - + - 2 - + -   1 - + - 2 - + -   1 - + - 2 - + -
e|---1-------1-----|---3-------3-----|---0-------0-----|---1-------1-----|
B|-----1-------1---|-----0-------0---|-----0-------0---|-----3-------3---|
G|-------2-------2-|-------0-------0-|-------1-------1-|-------3-------3-|
D|-----------------|-----------------|-----------------|---------3-------|
A|---------3-------|---------2-------|---------2-------|-1---------------|
E|-1---------------|-3---------------|-0---------------|-----------------|

Intro: C    C/B    C    C/B


    C
Moi je n'étais rien mais voilà qu'aujourd'hui
   C/B                                                  Am
Je suis le gardien du sommeil de ses nuits, je l'aime à mourir
      Dm
Vous pouvez détruire tout ce qui vous plaira
         F                G
Elle n'a qu'à ouvrir l'espace de ses bras
            C                      C/B                     Am
Pour tout reconstruire pour tout reconstruire, je l'aime à mourir

       C
Elle a gommé les chiffres des horloges du quartier
       C/B                                                Am
Elle a fait de ma vie des cocottes en papier, des éclats de rires
       Dm
Elle a bâti des ponts entre nous et le ciel
         F                 G
Et nous les traversons à chaque fois qu'elle
            C                  C/B                 Am
ne peut pas dormir ne peut pas dormir, je l'aime à mourir


           E                Am
Elle a dû faire toutes les guerres
G                    C
  Pour être si forte aujourd'hui
           E                Am
Elle a dû faire toutes les guerres
Bb             C             C/B   C    C/B
De la vie et l'amour aussi




                                                                             132
     C
Elle vit de son mieux son rêve d'opaline
     C/B                                                     Am
Elle danse au milieu des forêts qu'elle dessine, je l'aime à mourir
           Dm
Elle porte des rubans qu'elle laisse s'envoler
           F                     G
Elle me chante souvent que j'ai tord d'essayer
         C               C/B                Am
De les retenir, de les retenir, je l'aime à mourir

        C
Pour monter dans sa grotte cachée sous les toits
        C/B                                                Am
Je dois clouer des notes à mes sabots de bois, je l'aime à mourir
        Dm
Je dois juste m'asseoir, je ne dois pas parler
           F                     G
Je ne dois rien vouloir, je dois juste essayer
             C                 C/B                Am
de lui appartenir, de lui appartenir, je l'aime à mourir


           E                Am
Elle a dû faire toutes les guerres
G                    C
  Pour être si forte aujourd'hui
           E                Am
Elle a dû faire toutes les guerres
Bb             C             C/B   C    C/B
De la vie et l'amour aussi


    C
Moi je n'étais rien mais voilà qu'aujourd'hui
   C/B                                                  Am
Je suis le gardien du sommeil de ses nuits, je l'aime à mourir
      Dm
Vous pouvez détruire tout ce qui vous plaira
           F                 G
Elle n'aura qu'à ouvrir l'espace de ses bras
             C                     C/B                     Am
Pour tout reconstruire pour tout reconstruire, je l'aime à mourir

Finale: C




                                                                      133
Francis Cabrel - Je t'aimais, je t'aime et je t'aimerai

      G   Gadd9   D     D4    C   Cadd9 Emadd9 Em    C/B    Am
e|----3-----x-----2-----2-----0-----0-----0-----0-----0-----0----
B|----3-----3-----3-----3-----1-----1-----0-----0-----1-----1----
G|----0-----2h4---2-----0h2---0-----0-----0-----0-----0-----2----
D|----0-----0-----0-----2-----2-----0h2---4-----2-----x-----2----
A|----2-----2-----------------3-----3-----2-----2-----2-----0----
E|----3-----3-----------------------------0-----0----------------


G                            G     Gadd9    G
G                            G     Gadd9    G



G                             G    Gadd9    G
Mon enfant nue sur les galets
                                   D   D4   D
Le vent dans tes cheveux défaits
                                  C Cadd9 C
Comme un printemps sur mon trajet
                              Emadd2 Em
Un diamant tombé d'un coffret
                          G Gadd9 G
Seule la lumière pourrait
                             D D4 D
Défaire nos repaires secrets
                                    C Cadd9 C
Où mes doigts pris sur tes poignets
                                     Emadd2 Em
Je t'aimais, je t'aime, je t'aimerai


C                      C/B
Mais quoique tu fasses
Am                         D       D4 D
L'amour est partout où tu regardes
                               C      C/B
Dans les moindres recoins de l'espace
Am                         D           D4 D
Dans le moindre rêve où tu t'attardes
                               C Cadd9 C
L'amour comme s'il en pleuvait
                  Emadd9 Em
Nu sur les galets




                                                                    134
                                   G     Gadd9        G
Le ciel prétend qu'il te connaît
                                   D D4 D
Il est si beau c'est sûrement vrai
                             C Cadd9 C
Lui qui ne s'approche jamais
                                Emadd2 Em
Je l'ai vu pris dans tes filets
                                G Gadd9 G
Le monde a tellement de regrets
                                 D D4 D
Tellement de choses qu'on promet
                                     C Cadd9 C
Une seule pour laquelle je suis fait
                                     Emadd2 Em
Je t'aimais, je t'aime, je t'aimerai


C                      C/B
Mais quoique tu fasses
Am                         D       D4 D
L'amour est partout où tu regardes
                               C      C/B
Dans les moindres recoins de l'espace
Am                         D           D4 D
Dans le moindre rêve où tu t'attardes
                               C Cadd9 C
L'amour comme s'il en pleuvait
                  Emadd9 Em
Nu sur les galets


G   D   C   Em   (avec petits riffs)


                             G   Gadd9       G
On s'envolera du même quai
                                   D     D4       D
Les yeux dans les mêmes reflets
                                C Cadd9 C
Pour cette vie et celle d'après
                           Emadd2 Em
Tu seras mon unique projet
                                 G Gadd9 G
Je m'en irai poser tes portraits
                                        D D4 D
A tous les plafonds de tous les palais
                                   C Cadd9 C
Sur tous les murs que je trouverai
                              Emadd2 Em
Et juste en dessous j'écrirai
                              G Gadd9 G
Que seule la lumière pourrait
                                 D D4 D

                                         C       Cadd9    C
Et mes doigts pris sur tes poignets
                                             Emadd2 Em
Je t'aimais, je t'aime, je t'aimerai


                                                              135
G   D   C     Em   (avec petits riffs)

fade out...




                                         136
Félix Leclerc - Le p'tit bonheur

   Gm   Cm   D7   G    C    A    D   Db7
e|-3----3---------3----3----0----2----2--|
B|-3----4----3----3----5----2----3----1--|
G|-3----5----5----4----5----2----2----2--|
D|-5----5----4----5----5----2----0----0--|
A|-5----3----5----5----3----0------------|
E|-3--------------3----------------------|

   Gm                                    Cm
C'était un petit bonheur que j'avais ramassé
                 D7                         Gm
Il était tout en pleurs sur le bord d'un fossé
                                          Cm
Quand il m'a vu passer, il s'est mis à crier:
                    D7                    Gm
"Monsieur, ramassez-moi, chez vous amenez-moi

     G                                             C
Mes frères m'ont oublié, je suis tombé, je suis malade
   A                                                   D
Si vous n'me cueillez point, je vais mourir, quelle ballade !
   G                                            C
Je me ferai petit, tendre et soumis, je vous le jure
   A                 D              D7b           G...        Gm...
Monsieur, je vous en prie, délivrez-moi de ma torture"

     Gm                                            Cm
J'ai pris le p'tit bonheur, j'l'ai mis sous mes haillons
                          D7                           Gm
J'ai dit: "Faut pas qu'il meure, Viens-t'en dans ma maison"
                                      Cm
Alors le p'tit bonheur a fait sa guérison
                   D7                     Gm
Sur le bord de mon coeur, y avait une chanson

     G                                                            C
Mes jours, mes nuits, mes peines, mes deuils, mon mal, tout fut oublié
   A                                             D
Ma vie de désoeuvré, j'avais dégoût d'la r'commencer
         G                                              C
Quand il pleuvait dehors ou qu'mes amis m'faisaient des peines
       A              D                D7b                 G...          Gm...
J'prenais mon p'tit bonheur et j'lui disais: "C'est toi ma reine"

    Gm                                  Cm
Mon bonheur a fleuri, il a fait des bourgeons
               D7                       Gm
C'était le paradis, ça s'voyait sur mon front
                                     Cm
Or un matin joli que j'sifflais ce refrain
                D7                      Gm
Mon bonheur est parti sans me donner la main




                                                                                 137
       G                                          C
J'eus beau le supplier, le cajoler, lui faire des scènes
     A                                                D
Lui montrer le grand trou qu'il me faisait au fond du coeur
   G                                                     C
Il s'en allait toujours, la tête haute, sans joie, sans haine
       A              D              D7b            G...         Gm...
Comme s'il ne pouvait plus voir le soleil dans ma demeure

     Gm                                 Cm
J'ai bien pensé mourir de chagrin et d'ennui
                 D7                         Gm
J'avais cessé de rire, c'était toujours la nuit
                                         Cm
Il me restait l'oubli, il me restait l'mépris
                    D7                  Gm
Enfin que j'me suis dit: Il me reste la vie

      G                                                 C
J'ai repris mon bâton, mes deuils, mes peines et mes guenilles
    A                                        D
Et je bats la semelle dans des pays de malheureux
  G                                            C
Aujourd'hui quand je vois une fontaine ou une fille
    A              D               D7b           G
Je fais un grand détour ou bien je me ferme les yeux
A                  D               D7b           G
Je fais un grand détour ou bien je me ferme les yeux

(sifflage)




                                                                         138
Georges Brassens - Le temps ne fait rien à l'affaire

Shuffle beat

      Am   G    F    E    C    Em   A7   Dm   A   F#7   Bm   E+   A+   D   Dm6   C#
e|----0----3----1----0----0----0----0----1----0----2----2----x---------2----1----4----
B|----1----0----1----0----1----0----2----3----2----2----3----1----2----3----3----6----
G|----2----0----2----1----0----0----0----2----2----3----4----1----2----2----2----6----
D|----2----0----3----2----2----2----2----0----2----2----4----2----3----0----3----6----
A|----0----2----3----2----3----2----0---------0----4----2----x----0--------------4----
E|---------3----1----0---------0-------------------2---------0------------------------


Intro:
   Am
   1 + 2 + 3 + 4 +   1 + 2 + 3 + 4 +
e|---0---0---0---0-|---0---0---0---0-|
B|---1---1---1---1-|---1---1---1---1-|
G|-2---0-----------|-2---0-----------|
D|---------3---2---|---------3---2---|
A|-----------------|-----------------|
E|-----------------|-----------------|


Am                   G                       F        E    Am
Quand ils sont tout neufs, qu'ils sortent de l'oeuf, du cocon
Am                     G                       F    G         C   E
Tous les jeunes blancs-becs prennent les vieux mecs pour des cons
Am                 G                F      E     Am
Quand ils sont d'venus des têtes chenues, des grisons
Am                 G                     F    Em        Am
Tous les vieux fourneaux prennent les jeunots pour des cons


A7                          Dm
Moi qui balance entre deux âges
               G            C   Dm E
J'leur adresse à tous un messa--a--ge
A
Le temps ne fait rien à l'affaire
             F#7         Bm
Quand on est con, on est con

Qu'on ait vingt ans, qu'on soit grand-père
             E   E+      A
Quand on est con, on est con

Entre vous, plus de controverses
       A7   A+          D
Cons caducs ou cons débutants
            Dm6     A
Petits cons d'la dernière averse
Bm                        C#
Vieux cons des neiges d'antan
D           Dm6     A      F#7
Petits cons d'la dernière averse
Bm              E         Am
Vieux cons des neiges d'antan



                                                                                         139
Rythme de l'intro


Am                 G                        F     E         Am
Vous, les cons naissants, les   cons innocents, les jeun's cons
Am            G                   F   G          C     E
Qui n'le niez pas, prenez les   papas pour des cons
Am              G                   F     E         Am
Vous, les cons âgés, les cons   usagés, les vieux cons
Am              G                       F     Em         Am
Qui, confessez-le, prenez les   p'tits bleus pour des cons


A7                     Dm
Méditez l'impartial message
           G                 C Dm E
D'un qui balance entre deux â--â--ges
A
Le temps ne fait rien à l'affaire
             F#7          Bm
Quand on est con, on est con

Qu'on ait vingt ans, qu'on soit grand-père
             E   E+      A
Quand on est con, on est con

Entre vous, plus de controverses
       A7   A+          D
Cons caducs ou cons débutants
            Dm6     A
Petits cons d'la dernière averse
Bm                        C#
Vieux cons des neiges d'antan
D           Dm6     A       F#7
Petits cons d'la dernière averse
Bm              E         A     E     A
Vieux cons des neiges d'antan




                                                                  140
Gloria Gaynor - I Will Survive

Am                        Dm
First I was afraid, I was petrified
              G                              C
Kept thinking I could never live without you by my side
           F                             B7
But then I spent so many nights thinking how you did me wrong
           E
and I grew strong, and I learned how to get along


              Am                  Dm
and so you're back from outer space
              G                                 C
I just walked in to find you here with that sad look upon your face
              F                                       B7
I should have changed that stupid lock, I should have made you leave your key
         E
If I had known for just one second you'd be back to bother me


          Am                Dm
Go on now go walk out the door
                G                      C
Just turn around now 'cause you're not welcome anymore
F                                  B7
  Weren't you the one who tried to hurt me with goodbye
              E
You think I'd crumble, you think I'd lay down and die


           Am            Dm
Oh no, not I, I will survive
      G                            C
Oh as long as I know how to love I know I'll stay alive
         F                                 B7
I've got all my life to live, and I've got all my love to give
              E
and I'll survive, I will survive, hey hey


Am   Dm   G   C   F   B7   E


        Am                            Dm
It took all the strength I had not to fall apart
            G                             C
Kept trying hard to mend the pieces of my broken heart
            F                               B7
and I spent oh so many nights just feeling sorry for myself
              E
I used to cry, but now I hold my head up high




                                                                                141
             Am           Dm
and you see me, somebody new
              G                                C
I'm not that chained up little person still in love with you
           F                                B7
and so you felt like dropping in and just expect me to be free
        E
now I'm saving all my loving for someone who's loving me



          Am                Dm
Go on now go walk out the door
                G                      C
Just turn around now 'cause you're not welcome anymore
F                                  B7
  Weren't you the one who tried to break me with goodbye
              E
You think I'd crumble, you think I'd lay down and die


           Am            Dm
Oh no, not I, I will survive
      G                            C
Oh as long as I know how to love I know I will stay alive
         F                             B7
I've got all my life to live, I've got all my love to give
              E                  E...
and I'll survive, I will survive      Oh


Repeat and fade out




                                                                 142
Green Day - Good Riddance (Time Of Your Life)

       G   Cadd9 Dsus4   Em
e|-----3-----3-----3-----0-----|
B|-----3-----3-----3-----0-----|
G|-----0-----0-----2-----0-----|
D|-----0-----2-----0-----2-----|
A|-----2-----3-----------2-----|
E|-----3-----------------0-----|


Riff 1:
    G                               Cadd9           Dsus4
    1 - + - 2 - + - 3 - + - 4 - + -   1 - + - 2 - + - 3 - + - 4 - + -
e|----------------------------------|----------------------------------|
B|--------3---------------3---------|-------3---------------3----------|
G|o-----------0---0-----------0---0-|-----0-----0---0-----2-----2---2-o|
D|o-----0-------0-------0-------0---|-------------2---0-----------0---o|
A|----------------------------------|-3--------------------------------|
E|--3---------------3---------------|----------------------------------|

Riff 2:
    Em            Dsus4             Cadd9             G
    1 - + - 2 - + - 3 - + - 4 - + -   1 - + - 2 - + - 3 - + - 4 - + -
e|----------------------------------|----------------------------------|
B|--------0---------------3---------|-------3---------------3----------|
G|o-----------0---0-----2-----2---2-|-----0-----0---0-----------0---0-o|
D|o-----2-------2---0-----------0---|-------------2-------0-------0---o|
A|----------------------------------|-3--------------------------------|
E|--0-------------------------------|-----------------3----------------|

Strumming: exemple de rythme
    G                               Cadd9           Dsus4
    1 - + - 2 - + - 3 - + - 4 - + -   1 - + - 2 - + - 3 - + - 4 - + -
e|--3---3---3-3-3-3---3-3---3-3-3-3-|-3---3---3-3-3-3---3-3---3-3-3-3--|
B|--3---3---3-3-3-3---3-3---3-3-3-3-|-3---3---3-3-3-3---3-3---3-3-3-3--|
G|o-0---0---0-0-0-0---0-0---0-0-0-0-|-0---0---0-0-0-2---2-2---2-2-2-2-o|
D|o-0---0---0-0-0-0---0-0---0-0-0-0-|-2---2---2-2-2-0---0-0---0-0-0-0-o|
A|--2---2---2-2-2-2---2-2---2-2-2-2-|-3---3---3-3-3--------------------|
E|--3---3---3-3-3-3---3-3---3-3-3-3-|----------------------------------|


Intro:
   G
   1 - + - 2 - + - 3 - + -   1 - + - 2 - + - 3 - + -
e|-------------------------|-------------------------|
B|-------------------------|-------------------------|
G|-------0-----------------|-------0-----------------|
D|-----0-----0-------------|-----0-----0-------------|
A|-------------------------|-------------------------|
E|-3-----------------------|-3-----------------------|


Riff 1 <- 2x




                                                                           143
G                           Cadd9            Dsus4
   Another turning point a fork stuck in the road
G                                        Cadd9         Dsus4
   Time grabs you by the wrist and directs you were to go
Em               Dsus4         Cadd9               G
   so make the best of these days and dont ask why
Em             Dsus4         Cadd9            G
   Its not a question but a lesson learned in time

     Em             G           Em            G
Its somethin' unpredictable but in the end is right
  Em                  Dsus4
I hope you have the time of your life

(strumming)
G           Cadd9   Dsus4
G           Cadd9   Dsus4

G                                Cadd9             Dsus4
   so take the photographs and stillframes in your mind
G                         Cadd9                  Dsus4
   hang it on a shelf in good health and good time
Em             Dsus4          Cadd9     G
   tatoos and memories and dead skin on trial
Em              Dsus4        Cadd9         G
   for what its worth it was worth all the while

     Em             G           Em            G
Its somethin' unpredictable but in the end is right
  Em                  Dsus4
I hope you have the time of your life

(strumming)
G           Cadd9   Dsus4
G           Cadd9   Dsus4
G           Cadd9   Dsus4
G           Cadd9   Dsus4
Em Dsus4 Cadd9      G
Em Dsus4 Cadd9      G

     Em             G           Em            G
Its somethin' unpredictable but in the end is right
  Em                  Dsus4
I hope you have the time of your life

G          Cadd9    Dsus4
G          Cadd9    Dsus4

(picking)
     Em             G           Em            G
Its somethin' unpredictable but in the end is right
  Em                  Dsus4
I hope you have the time of your life

riff 1 <- 2x lentement puis G <- final




                                                               144
Guns N Roses - Don't cry

Intro:
             Am              Dm                G               C
  4 - + -    1 - + - 2 - + - 3 - + - 4 - + -   1 - + - 2 - + - 3 - + - 4 - + -
e---------|----------0---------------1-------|---------3------------------------|
B---------|------------1-----------3---3-----|-----------3----------------------|
G---------|o-------2-----2-------2-------2---|-------0-----0-------0-----0-----o|
D---------|o-----2---------0-0-------------0-|-----0---------0---2-----0-------o|
A---------|--0-------------------------------|---2-------------3-----2-----3-2--|
E-3-------|----------------------------------|-3--------------------------------|
            |____________________Riff principal du couplet______________________|

              Am              Dm                G               C
   1 - + - 2 - + - 3 - + - 4 - + -   1 - + - 2 - + - 3 - + - 4 - + -
e|---------0---------------1-------|---------------------------------|
B|-----------1-----------3---3-----|---------------------------------|
G|-------2-----2-------2-------2---|-------0-------------------------|
D|-----2---------2-0-------------0-|-----0---------------------------|
A|-0-------------------------------|---2-----------------------------|
E|---------------------------------|-3---------2-3-4-5---------------|



Am             Dm
   Talk to me softly
        G                      C
There's something in your eyes
Am                      Dm
   Don't hang your head in sorrow
G                    C
   And please don't cry
Am                   Dm
   I know how you feel inside I've
G                          C
   I've been there before
Am                Dm
   Somethin's changin' inside you
G                       C
   And don't you know


F              G           Am
     Don't you cry tonight

I still love you baby
F           G           Am
  Don't you cry tonight
F           G           C
  Don't you cry tonight
          C/B         Am    G
There's a heaven above you baby
F               G           Am
  And don't you cry tonight




                                                                                    145
Am               Dm
     Give me a whisper
G                      C
   And give me a sigh
Am            Dm
   Give me a kiss before you
G                  C
   Tell me goodbye
Am            Dm
   Don't you take it so hard now
G                                C
   And please don't take it so bad
Am               Dm
   I'll still be thinkin' of you
G                    C
   And the times we had...baby


F               G           Am
  And don't you cry tonight
F           G           Am
  Don't you cry tonight
F           G
  Don't you cry tonight
          C/B         Am    G
There's a heaven above you baby
F               G           Am
  And don't you cry tonight


Solo:

D5         F5      | G5   A5   G5    | F5   G5      | A5            G5   |
F5         G5      | E5   F5         | F5   G5      | A5


Dm                G   C              Am
   And please remember that I never lied
Dm                G   C                  Am
   And please remember how I felt inside now honey
Dm            G                  C                  Am
   You gotta make it your own way but you'll be alright now sugar
Dm              G              C          C/B      Am      G
   You'll feel better tomorrow, come the morning light now baby




                                                                             146
F               G           Am
  And don't you cry tonight
F               G           Am
  And don't you cry tonight
F               G           C
  And don't you cry tonight
          C/B         Am    G
There's a heaven above you baby
F               G
  And don't you cry
F                 G
  Don't you ever cry
F           G           E
  Don't you cry tonight
     F
Baby maybe someday
F               G
  And don't you cry
F                 G
  Don't you ever cry
F           G           Am
  Don't you cry tonight




                                  147
Hammerstein - All The Things You Are

Jouer librement ou avec un beat jazz

  Fm7               Bbm7              Eb7               Abmaj7
   1 + 2 + 3 + 4 +   1 + 2 + 3 + 4 +   1 + 2 + 3 + 4 +   1 + 2 + 3 + 4 +
e|-----------------|-9---------------|-----------------|-----8-----------|
B|-9---------------|-6-----------9---|-8---8---8---8---|-8-----------8---|
G|-8---------------|-6---------------|-6---------------|-8---------------|
D|-6---------------|-6---------------|-8---------------|-6---------------|
A|-8---------------|-----------------|-6---------------|-----------------|
E|-----------------|-----------------|-----------------|-----------------|


  Dbmaj7            G7                Cmaj7
   1 + 2 + 3 + 4 +   1 + 2 + 3 + 4 +   1 + 2 + 3 + 4 +   1 + 2 + 3 + 4 +
e|-----------------|-----7-----------|-----------------|-----------------|
B|-6--(6---6---6)--|-6-----------6---|-5---------------|-----5-----------|
G|-5---------------|-7---------------|-4---------------|-4-------4-------|
D|-6---------------|-5---------------|-5-----------5---|-------------5---|
A|-4---------------|-----------------|-3-------3-------|-----------------|
E|-----------------|-----------------|-----------------|-----------------|


  Cm7               Fm7               Bb7               Ebmaj7
   1 + 2 + 3 + 4 +   1 + 2 + 3 + 4 +   1 + 2 + 3 + 4 +   1 + 2 + 3 + 4 +
e|-----------------|-4---------------|-----------------|-----3-----------|
B|-4---------------|-4-----------4---|-3---3---3---3---|-3-----------3---|
G|-3---------------|-5---------------|-1---------------|-3---------------|
D|-1---------------|-3---------------|-3---------------|-5---------------|
A|-3---------------|-----------------|-1---------------|-6---------------|
E|-----------------|-----------------|-----------------|-----------------|


  Abmaj7            D7                Gmaj7
   1 + 2 + 3 + 4 +   1 + 2 + 3 + 4 +   1 + 2 + 3 + 4 +   1 + 2 + 3 + 4 +
e|-----------------|-----------------|-----------------|-------------10--|
B|-----------------|----3--4-3-------|-----------------|---------8-------|
G|-5--(5---5---5)--|-5-----------5---|-4---------------|-----7-----------|
D|-5---------------|-4---------------|-4---------------|-----------------|
A|-----------------|-5---------------|-----------------|-----------------|
E|-4---------------|-----------------|-3---------------|-----------------|
                     |--3--|

  Am7               D7                Gmaj7
   1 + 2 + 3 + 4 +   1 + 2 + 3 + 4 +   1 + 2 + 3 + 4 +   1 + 2 + 3 + 4 +
e|-10--------------|-------------8---|-7---------------|-------------7---|
B|-10------13----10|-----------------|-7---------------|---------8-------|
G|-12------12----11|-----8---9-------|-7---------------|-----7-----------|
D|-10------10----10|-----------------|-5---------------|-----------------|
A|-12------12------|-----------------|-----------------|-----------------|
E|---------------10|-----------------|-----------------|-----------------|




                                                                             148
  F#m7              B7                Emaj7             C+7
   1 + 2 + 3 + 4 +   1 + 2 + 3 + 4 +   1 + 2 + 3 + 4 +   1 + 2 + 3 + 4 +
e|-7---------------|-----------------|-----------------|-----------------|
B|-7-------10----7-|-------------10--|-9---------------|-9---------------|
G|-9-------9-----8-|-----------------|-8---------------|-9---------------|
D|-7-------7-----7-|-----8---9-------|-6---------------|-10--------------|
A|-9-------9-------|-----------------|-7---------------|-11--------------|
E|---------------7-|-----------------|-----------------|-----------------|


  Fm7               Bbm7              Eb7               Abmaj7
   1 + 2 + 3 + 4 +   1 + 2 + 3 + 4 +   1 + 2 + 3 + 4 +   1 + 2 + 3 + 4 +
e|-----------------|-9---------------|-----------------|-----8-----------|
B|-9---------------|-6-----------9---|-8---8---8---8---|-8-----------8---|
G|-8---------------|-6---------------|-6---------------|-8---------------|
D|-6---------------|-6---------------|-8---------------|-6---------------|
A|-8---------------|-----------------|-6---------------|-----------------|
E|-----------------|-----------------|-----------------|-----------------|


  Dbmaj7            Dbm7              Cm7               Bdim7
   1 + 2 + 3 + 4 +   1 + 2 + 3 + 4 +   1 + 2 + 3 + 4 +   1 + 2 + 3 + 4 +
e|-----------------|-11------9-------|-----------------|-----------------|
B|-6---------------|-11------11------|-----------------|-8---------------|
G|-5---------------|-10------10------|-8---8---8--8--8-|-7-----------10--|
D|-6---------------|-9-------9-------|-8---------------|-9---------------|
A|-4---------------|-----------------|-----------------|-8---------------|
E|-----------------|-----------------|-8---------------|-7---------------|
                                               |--3--|

  Bbm7              Eb7               Abmaj7            (G7      C7)
   1 + 2 + 3 + 4 +   1 + 2 + 3 + 4 +   1 + 2 + 3 + 4 +   1 + 2 + 3 + 4 +
e|-------------9---|-13------15------|-16--------------|-----------------|
B|---------9-------|-13------14------|-----16----------|-----------------|
G|-----10----------|-12------15------|---------17------|-----------------|
D|-11--------------|-11------13------|-------------18--|-----------------|
A|-----------------|-----------------|-----------------|-----------------|
E|-----------------|-----------------|-----------------|-----------------|




                                                                             149
Harmonium - Dixie

(capot à la première frette pour être comme l'enregistrement)


      D    A7_    D    Ddim   E7   F#m    B7   D/C# D/B    D/A
e|----0-----3-----2-----2-----0-----2-----2-----2-----2-----2----
B|----2-----2-----3-----1-----3-----2-----0-----3-----3-----3----
G|----2-----2-----2-----2-----1-----2-----2-----2-----2-----2----
D|----2-----2-----0-----1-----0-----4-----1-----x-----x-----x----
A|----0-----0-----------------2-----4-----2-----4-----2-----0----
E|----------------------------0-----2----------------------------

     D7_ C#7sus4 C#7    Bm    Bb    Em    Dm Dsus2 Dsus4
e|----5-----4-----4-----2-----1-----0-----1-----0-----3----
B|----7-----7-----6-----3-----3-----0-----3-----3-----3----
G|----5-----4-----4-----4-----3-----0-----2-----2-----2----
D|----7-----6-----6-----4-----3-----2-----0-----0-----0----
A|----5-----4-----4-----2-----1-----2----------------------
E|---------------------------(1)----0----------------------


Intro:
     + 4 +
e|---0-2-4-|

A       A7_     D       Ddim    A       E7

   A
   1 + 2 + 3 + 4 +
e|-0-9-8-7-5-------|
B|-2---------------|
G|-2-9-8-7-6-------|
D|-2---------------|
A|-0---------------|
E|-----------0-2-4-|


A
  Dis moi c'est quoi ta toune,
Em        A7               D
  Qui m'revient dans les oreilles tout le temps,
   Ddim                              F#m          B7
Si c'est moi, j'ai plus bien bien le temps comme avant,
        F#m           B7
Plus le temps, comme avant
     D D/C# D/B D/A E7
Pour remplir mes o -reilles


     + 4 +
e|---0-2-4-|




                                                                    150
A
  Dis moi c'est quoi ta toune,
Em          A7               D
  Qui m'revient comme le soleil tout le temps,
       Ddim                          F#m                B7
Quand y vient, c'est jamais pour longtemps de temps en temps,
          F#m                  B7
Pour longtemps, de temps en temps
     D    D/C# D/B D/A E7 <- stop
Pour chauffer mes o -reilles


D7_    C#7sus4    C#7   Bm    E7
Hey,   toi fais-en du pareil, ote tes doigts de dans tes oreilles
D7_    C#7sus4    C#7   Bm    E7 <- stop
Hey,   toi fais-en du pareil,    Bep Bop bi doo.....


Bb                 Em      A7
Dm        Dsus2    Dsus4   D
Bb                 Em      A7
Dm        Dsus2    Dsus4   D


(juste en frappant l'accord une fois)
A               E7      A7
D               Ddim
(recommencer à jouer avec beat)
F#m             B7
F#m             B7
D   /C# /B /A E7

A                  E7      A7
D                  Ddim
F#m                B7
F#m                B7
D   /C# /B    /A   E7


D7_                C#7sus4 C#7
Bm                 E7

Répéter 8 fois:
Bb              Em         A7
Dm      Dsus2   Dsus4      D


Partie finale:
A       A7_        D       Ddim   A       E7

   A
   1 + 2 + 3 + 4 +
e|-0-9-8-7-5---0---|
B|-2-----------2---|
G|-2-9-8-7-6---2---|
D|-2-----------2---|
A|-0-----------0---|
E|-----------------|




                                                                    151
Iggy Pop - The Passenger

Riff principal (suffle beat)

   Am          F             C           G
   1   + 2   + 3   + 4   +   1   + 2   + 3   + 4   +
e|-----0-0---0-----1-1---1-|-----0-0---0-----3-3---3-|
B|-----1-1---1-----1-1---1-|-----1-1---1-----0-0---0-|
G|-----2-2---2-----2-2---2-|-----0-0---0-----0-0---0-|
D|-----2-2---2-----3-3---3-|-----2-2---2-----0-0---0-|
A|-----0-0---0-----3-3---3-|-----3-3---3-----2-2---2-|
E|-----------------1-1---1-|-----------------3-3---3-|

   Am          F             C           E
   1   + 2   + 3   + 4   +   1   + 2   + 3   + 4   +
e|-----0-0---0-----1-1---1-|-----0-0---0-----0-0---0-|
B|-----1-1---1-----1-1---1-|-----1-1---1-----0-0---0-|
G|-----2-2---2-----2-2---2-|-----0-0---0-----1-1---1-|
D|-----2-2---2-----3-3---3-|-----2-2---2-----2-2---2-|
A|-----0-0---0-----3-3---3-|-----3-3---3-----2-2---2-|
E|-----------------1-1---1-|-----------------0-0---0-|

Intro: riff principal 3x

Am        F         C       G
   I am a passenger
Am           F           C       E
   And I ride and I ride
Am        F           C                G
   I ride through the city's backside
Am           F           C               E
   I see the stars come out of the sky
Am               F            C            G
   Yeah, they're bright in a hollow sky
Am             F         C           E
   You know it looks so good tonight


riff principal 1x


Am        F         C       G
   I am a passenger
Am          F         C       E
   I stay under glass
Am        F           C                  G
   I look through my window so bright
Am              F       C            E
   I see the stars come out tonight
Am              F       C          G
   I see the bright and hollow sky
Am            F       C              E
   Over the city's a rip in the sky
Am            F         C              G
   And everything looks good tonight

Am          F          C            E




                                                         152
        Am    F     C           E
Singin' la la la la la-la-la la
Am    F     C           E
La la la la la-la-la la
Am    F     C           E
La la la la la-la-la la la-la la

Am           F           C            E
Am           F           C            E


Am       F              C     G
   Get into the car
Am                F       C          E
   We'll be the passenger
Am            F             C          G
   We'll ride through the city tonight
Am         F          C          E
   See the city's ripped insides
Am                  F         C        G
   We'll see the bright and hollow sky
Am                  F              C       E
   We'll see the stars that shine so bright
Am              F           C        G
   The sky was made for us tonight

Am               F            C           E


Riff principal 1x


Am         F           C             G
   Oh the passenger
Am     F           C           E
   How how he rides
Am         F           C             G
   Oh the passenger
Am     F                         C         E
   He rides and he rides
Am           F                           C        G
   He looks through his window
Am       F               C             G
   What does he see?
Am                 F       C               G
   He sees the sided hollow sky
Am               F                 C            G
   He see the stars come out tonight
Am                 F         C                    G
   He sees the city's ripped backsides
Am                 F           C             G
   He sees the winding ocean drive
Am           F               C                 G
   And everything was made for you and me
Am         F         C                     G
   All of it was made for you and me
Am             F           C                      G
   'cause it just belongs to you and me
Am           F           C             G
   So let's take a ride and see what's mine

                                                      153
Riff principal 1x


        Am    F     C           E
Singin' la la la la la-la-la la
Am    F     C           E
La la la la la-la-la la
Am    F     C           E
La la la la la-la-la la la-la la


Am        F         C          E
Am        F         C          E


Am         F         C         G
   Oh, the passenger
Am     F                 C       E
   He rides and he rides
Am         F             C           G
   He sees things from under glass
Am           F           C             E
   He looks through his window's eye
Am                 F       C               G
   He sees the things he knows are his
Am                 F         C           E
   He sees the bright and hollow sky
Am                 F   C             G
   He sees the city asleep at night
Am                 F       C           E
   He sees the stars are out tonight
Am               F   C             G
   And all of it is yours and mine
Am               F   C             E
   And all of it is yours and mine
Am             F             C       G
   Oh, let's ride and ride and ride and ride...

Am            F         C          E

        Am    F     C           E
Singin' la la la la la-la-la la
Am    F     C           E
La la la la la-la-la la
Am    F     C           E
La la la la la-la-la la la-la la

        Am    F     C           E
Singin' la la la la la-la-la la
Am    F     C           E
La la la la la-la-la la
Am    F     C           E
La la la la la-la-la la la-la la


Fade out...




                                                  154
Israel Kamakawiwo Ole - Somewhere Over The Rainbow

      C     G     Am    F   Fadd9   E7
e|----8-----7-----8-----5-----5-----7------------------------------------------------
B|----8-----8-----10----6-----8-----x-------------------------------------------------
G|----9-----7-----9-----5-----5-----7------------------------------------------------
D|----10----9-----7-----7-----7-----6-------------------------------------------------
A|----10----10----------------------7------------------------------------------------
E|-------------------------------------------------------------------------


Intro:


C        G        Am      F
C        G        Am      Fadd9
F        F


Oooooh...
C                 G               F               C
F                 E7              Am              Fadd9      F

C         G                 F        C
Somewhere over   the rainbow way up high
F       C                          G              Am        Fadd9   F
And the dreams   that you dream of once in a lullaby        Ahhhhhhhh!
C         G                 F            C
Somewhere over   the rainbow blue birds fly
F       C                            G                      Am     Fadd9   F
And the dreams   that you dream of, dreams really do come   true   Oooooh!

    C                          G                                 Am    F
Someday I'll wish upon a star, wake up where the clouds are far behind me
      C
Where trouble melts like lemon drops
G                              Am           Fadd9   F
High above the chimney tops is where you'll find me
C         G               F            C
Somewhere over the rainbow blue birds fly
F       C                            G                Am   Fadd9    F
And the dreams that you dare to, oh why… oh why can't I?   Iiiiiii!

    C                          G                                 Am    F
Someday I'll wish upon a star, wake up where the clouds are far behind me
      C
Where trouble melts like lemon drops
G                              Am           Fadd9   F
High above the chimney tops is where you'll find me
C         G               F       C
Somewhere over the rainbow way up high,
F       C                            G                Am   Fadd9    F
And the dreams that you dare to, oh why… oh why can't I?   Iiiiiii!

Oooooh...
C                 G               F               C
F                 E7              Am              Fadd9      F

Fade out...


                                                                                         155
Jamil - Fuck faut qu'tu changes

        Am        G       F
e|----5----0----3----3----1----|
B|----5----1----3----0----1----|
G|----5-ou-2----4-ou-0----2----|
D|----7----2----5----0----3----|
A|----7----0----5----2----3----|
E|----5---------3----3----1----|

Rythme général:
   Am                                G
   1 - + - 2 - + - 3 - + - 4 - + -   1 - + - 2 - + - 3 - + - 4 - + -
e|---------5-----5---------5-------|---------3-----3---------3-------|
B|---------5-----5---------5---x-x-|---------3-----3---------3---x-x-|
G|---------5-----5---------5---x-x-|---------4-----4---------4---x-x-|
D|---------7-----7---------7---x-x-|---------5-----5---------5---x-x-|
A|-7-------7-----7-7---7---7-------|-5-------5-----5-5---5---5-------|
E|-5-------5-----5-5---5---5-------|-3-------3-----3-3---3---3-------|

   F                                 G
   1 - + - 2 - + - 3 - + - 4 - + -   1 - + - 2 - + - 3 - + - 4 - + -
e|---------1-----1---------1-------|---------3-----3---------3-------|
B|---------1-----1---------1---x-x-|---------3-----3---------3---x-x-|
G|---------2-----2---------2---x-x-|---------4-----4---------4---x-x-|
D|---------3-----3---------3---x-x-|---------5-----5---------5---x-x-|
A|-3-------3-----3-3---3---3-------|-5-------5-----5-5---5---5-------|
E|-1-------1-----1-1---1---1-------|-3-------3-----3-3---3---3-------|


Intro:

   1 + 2 + 3 + 4 +   1 + 2 + 3 + 4 +
e|-----------------|-----------------|------------0----|
B|-----------------|-----------------|-----------1-----|
G|-----------------|-----------------|----------2------|
D|---------------0-|---------0-------|---------2-------|
A|-0-------0-2-3---|-----------3-2---|-0------0--------|
E|-----------------|-----------------|-----------------|

         Am                                                     G
Quand ta chambre à coucher commence à ressembler à ton cendrier
         F                                                    G
Que t'as plus d'job, plus d'blonde et que l'amour à trois ben, c'est juste un projet
              Am                                G
Quand ta salle de bain fait coin-coin avant même d'y avoir mis les pieds
              F                                   G
et que ton frigo siffle un refrain que t'as encore jamais chanter
             Am                            G
Quand la poussière dans les coins te pousse entre les orteils
           F                                    G
Et que ta mère te dit que ton ex, t'en trouveras jamais une autre pareille...

                    Am       G
Faut qu'tu changes...
                       F         G
Fuck faut qu'tu changes...




                                                                                       156
Am                                                        G
     Quand la blonde qui te crouse depuis six mois te dit qu'elle a pas le temps,

qu'il faut qu'elle voit son père,
            F                                           G
et que c'est justement celle-là même avec qui t'avais juré de jamais t'envoyer en l'air
     Am                                             G
Quand ton meilleur chum te dit que c'est pas grave,

que c'est juste une mauvaise passe,
                 F                                                 G
que t'as pas vraiment mauvais caractère et qu'un jour elles boiront toute la tasse.
        Am                                  G
Quand à la dernière pilule, t'as l'sentiment du dernier joint,
        F                              G
que ton docteur qui t'encule te dit que ta prostate va bien

           Am       G
Faut qu'tu changes...
                       F           G
Fuck faut qu'tu changes...

Am                                                   G
  Depuis que pour toi l'amour c'est un scandale, que c'est une bavure
  jusqu'au fond des amygdales,
          F                                      G
que c'est le déclin du destin, que c'est l'avenir qui rime à rien
          Am                                      G
Depuis ce temps, là même où t'as plus l'impression de vraiment tenir debout,
     F                                             G
où à chaque semaine ta peine te suffit à te mettre à genoux.
                    Am                            G
Depuis que le temps est de plus en plus long entre chaque rendez-vous,
                  F                                      G
qu'y a une baleine avec des gaines qui essaie de te faire les yeux doux

           Am       G
Faut qu'tu changes...
                       F           G
Fuck faut qu'tu changes...


Am                                                 G
   C'est sûr, c'est pas toujours facile quand c'est tous les jours dimanche,
                    F                                       G
quand y'a justement juste des imbéciles qui travaillent justement
   juste dans la même branche
     Am                                         G
Une chance que t'es cablé parce que là au moins tu t'sens un peu moins seul,
          F                                      G
c'est la misère qu'on étale et l'amour qui fait des taches sur la gueule, les jeunes
Am                                     G
   Les jeunes c'est la révolte, et toi, t'es un révolté,
                F                                      G
mais à l'heure de la récolte, tu sais qu'tu seras là pour collecter
                   Am                                      G
Tu sais qu'tu vas passer au travers, toi tu sais qu'tu vas tenir bon,
              F                                      G
t'as juste à lire les circulaires et surtout à bien garder les coupons


                                                                                          157
           Am       G
Faut qu'tu changes...
                       F            G
Fuck faut qu'tu changes...

Am                                                  G
   C'est sûr, c'est pas toujours facile quand c'est tous les jours dimanche,
                      F                                   G
quand y'a justement juste des imbéciles qui travaillent justement
   juste dans la même branche
            Am                                  G
Une chance que t'es cablé parce que là au moins tu t'sens un peu moins seul,
          F                                       G
c'est la misère qu'on étale et l'amour qui fait des taches sur la gueule, les jeunes
Am                                     G
   Les jeunes c'est la révolte, et toi, t'es un révolté,
                 F                                      G
mais à l'heure de la récolte, tu sais qu'tu seras là pour collecter
                   Am                                       G
Tu sais qu'tu vas passer au travers, toi tu sais qu'tu vas tenir bon,
               F                                      G
t'as juste à lire les circulaires et surtout à bien garder les coupons

           Am       G
Faut qu'tu changes...
                       F            G
Fuck faut qu'tu changes...
                              Am               G     F   G
Faut qu'tu changes de champ             hehe... mama
Am             G              F         G
   rock'n'roll will never die
Am       G       F  G
   mama...hehe
Am             G                F        G
   rock'n'roll is here to stay

Am               G                         F    G
   Seul sur le sable, les pieds dans l'eau,     mon rêve était trop beau
Am                 G              F      G
   L'été qui s'achève, tu partiras,    à cent mille lieues de moi...




                                                                                       158
Jamil - Je pète au lit

      Dm   A    Bb
e|----5----5----6----
B|----6----5----6----
G|----7----6----7----
D|----7----7----8----
A|----5----7----8----
E|---------5----6----


Riff principal:

    Dm                  A                  Dm
    1 + 2 + 3 + 4 +     1 + 2 + 3 + 4 +    1 - + - 2 - + - 3 - + - 4 - + -
e|----5---5---5---5--|----5---5---5---5--|-----5-5-----5---5---------------|
B|----6---6---6---6--|----5---5---5---5--|-----6-6-----6---6---------------|
G|o---7---7---7---7-o|o---6---6---6---6-o|-----7-7-----7---7---------------|
D|o-----------------o|o-----------------o|-----7-7-----7---7---------------|
A|--5-------5--------|--7-------7--------|-5---5-5-----5---5---------------|
E|------5-------5----|------5-------5----|---------------------------------|

Intro: Dm


Elle est belle, elle est prude, et moi un p'tit peu rude
                                            A
Avec sa robe noire, ses p'tits souliers du soir
                                         Dm
Le sourire d'un ange et les yeux qu'on dérange


J'approche, j'approche, me glisser dans sa poche,
                                               A
me glisser sur ses hanches au creux de sa peau blanche
                                      Dm
J'imagine ma bouche, ma bouche qui la touche


Mes yeux noirs qui pétillent, le long de ses bas résillent,
                                                     A
Et qui boivent des "je t'aime" sur sa cuisse de porcelaine,
                                                                  Dm
Ce sont les premiers désirs, tout ça c'est beau mais ça vient d'finir

              Dm               A        A                Dm
Maintenant je pète au lit avec elle, je pète au lit avec elle
       Dm               A        A                Dm
Oui je pète au lit avec elle, je pète au lit avec elle


C'est la confiance qui s'installe, la vraie nature qu'on déballe
                                               A
Y'a pas matière à scandale, on est au règne animal,
                                                    Dm
On lève les draps et on rit, c'est les odeurs de la vie




                                                                               159
C'est les odeurs de l'amour, c'est comme ça depuis toujours,
                                                            A
Et comme elle est libérale y paraît qu'aujourd'hui c'est normal,
                                                                  Dm
Y'a plusieurs hommes dans notre vie, j'suis pas jaloux et j'ai compris

                               A        A                Dm
Maintenant on pète au lit avec elle, on pète au lit avec elle
       Dm               A        A                Dm
Oui on pète au lit avec elle, on pète au lit avec elle

         Dm                                   A    A    A
Oh bella chow, oh bella chow bella chow bella chow-chow-chow
     Bb                A
Les odeurs sont trop pénibles
         A           A    A    Dm    A    Dm
oh bella chow, bella chow chow chow




                                                                         160
Jamil - Je Ronfle

Riff de toute la toune:
    Am
    1   + 2   + 3   + 4   +
e|--0---0--------------------|
B|--1---1--------------------|
G|o-2---2-------------------o|
D|o-2---2-------------------o|
A|--0------------------------|
E|--------3-----2-----1------|


Je ronfle... ok, je ronfle
J'te dis jamais que j'taime... ok, j'te dis jamais que j'taime
Quand on sort ensemble, j'me colle jamais... ok, j'me colle jamais
J'te fais jamais d'compliments... ok, j'te fais jamais d'compliments
Tu trouves que j'bois trop... ok, j'bois trop
Tu trouves que j'fume trop... ok, j'fume trop
Quand j'parle, j'parle tout le temps trop... ok, j'parle trop
Tu trouves que j'm'habille tout le temps pareil... ok, j'm'habille tout le temps pareil
J'donne trop de temps à mes amis... ok, j'donne trop de temps à mes amis
Quand j'conte des jokes, t'es pu capable... ok, t'es pu capable
À la maison j'laisse tout traîner, mais ça t'dérange pas
Mes slips, mes chemises, mes chausettes, mais ça t'dérange pas
Cool, ça t'dérange pas
T'en parles tout le temps, mais ça t'dérange pas
Cool, ça t'dérange pas
Tu dis que je suis pas patient et que j'comprends pas... ok, j'comprends pas
T'as beau m'expliquer, mais j'comprends pas... ok, j'comprends pas
Si je suis pas d'accord avec toi, c'est parce que j'ai pas compris... ok, j'ai pas compris
Tu dis qu'tu m'aimes commme je suis, mais j'ai jamais été comme tu m'aimes




                                                                                         161
Jamil - Ça coûte cher

      Em   C    B
e|----7----8----7----
B|----8----8----7----
G|----9----9----8----
D|----9----10---9----
A|----7----10---9----
E|---------8----7----


Intro:
   Em                                Em
   1 - + - 2 - + - 3 - + - 4 - + -   1 - + - 2 - + - 3 - + - 4 - + -
e|-------7-----7---7---------------|---------7---7---x---x---7---x---|
B|-----------------------10----7---|---------8---8---x---x---8---x---|
G|-|____________|-|_____________|--|---------9---9---x---x---9---x---|
D|--------3--------------3---------|---------9---9---x---x---9---x---|
A|---------------------------------|---------7---7---x---x---7---x---|
E|---------------------------------|-0-------------------------------|

                                     C
   1 - + - 2 - + - 3 - + - 4 - + -   1 - + - 2 - + - 3 - + - 4 - + -
e|-7-----7-----7---7---------------|---------8---8---x---x---8---x---|
B|-8---------------------10----7---|---------8---8---x---x---8---x---|
G|-9--------------|_____________|--|---------9---9---x---x---9---x---|
D|-9---------------------3---------|---------10--10--x---x---10--x---|
A|-7-------------------------------|---------10--10--x---x---10--x---|
E|-|____________|------------------|-8-------8---8---x---x---8---x---|
          3
                                       Bb
   1 - + - 2 - + - 3 - + - 4   - + -   1 - + - 2 - + - 3 - + - 4 - + -
e|-8---------------------------------|---------7---7---x---x---7---x---|
B|-8-----------7-8-10--8---7h8p7-----|---------7---7---x---x---7---x---|
G|-9-----------------------------9---|---------8---8---x---x---8---x---|
D|-10--------------------------------|---------9---9---x---x---9---x---|
A|-10--------------------------------|---------9---9---x---x---9---x---|
E|-8---------------------------------|-7-------7---7---x---x---7---x---|

                                     Em
   1 - + - 2 - + - 3 - + - 4 - + -   1 - + - 2 - + - 3 - + - 4 - + -   1
e|-7-------------------------------|-7-----------------------7-------|-7-
B|-7-------------------7---8-------|-8-----------------------7-------|-8-
G|-8-----------8-h-9---------------|-9-----------------------8-------|-9-
D|-9-------------------------------|-9-----------------------9-------|-9-
A|-9-------------------------------|-7-----------------------9-------|-7-
E|-7-------------------------------|-------------------------7-------|---


         Em
Ça coûte cher
                     C
de se coucher tard
                        B
On est pas toujours sincère
                     Em
passé onze heures du soir




                                                                            162
           Em
Parfois je doute
         C
Dieu est mort
                        B
Je doute de mes propres doutes
                       Em
Ou ben il existe pas encore

                         Em
Oui mais quand même ça repeint
                            C
Comme des croque-morts à la morgue
                   B        stop..
Des légionnaires livides
                            Em
Est-ce qu'on est vraiment lucide

                            Em
Lucide...  Lucide, c'est ma blonde
                         C
Elle, elle sait vraiment tout
                   B
Elle sait tout vraiment
                         Em
C'est comme ça, pas autrement

                       Em
C'est une bête immonde
                  C
Qui gueule et qui gronde
                          B
La tête et l'cul qui s'confondent
                            Em
Comment voulez-vous que j'féconde

                     Em
C'est une vraie moulinette
             C
Une poupée piplette
                              B
quarante huit heures de blabla stérile
                      Em
Et ça, c'est sans les piles

                    Em
J'veux casser ma poupée
                        C
J'veux qu'elle tombe en panne
                                B   stop..
Et si c'est vrai qu'c'est ma moitié
                                Em (short stroke)
J'veux faire un don d'organe




                                                    163
                         Em
Oui mais ça coûte cher
                   C
Les dons d'organes
                          B
La santé c'est précaire
                              Em
Pis j'aime pas la tisanne

                               Em
Tisanne...  Tisanne, c'est ma nièce
                             C
Elle, elle est faite en deux pièces
                         B          stop..
D'un côté, y'a une fesse

Pis de l'autre... ben de l'autre... ben, y'a l'autre fesse

                    Em
Tisanne, c'est l'enfer
                  C
C'est l'aumône planétaire
                       B           stop..
Elle tire tout c'qui bouge

Même quand elle est dans l'...

C'est déguelasse...

                             Em
Mais restons dans les règles
             C
Ma chère est faible
                    B         stop..
Et je me dis que ce soir
                         Em
J'vais encore me coucher tard

                   Em
Oui mais ça coûte cher
              C
De se coucher tard
                    B         stop..
À quoi bon être sincère
                          Em
Quand ta vie est un cauchemar


   Em                                Em
   1 - + - 2 - + - 3 - + - 4 - + -   1 - + - 2 - + - 3 - + - 4 - + -
e|-------7-----7---7---------------|---------7---7---x---x---7---x---|
B|-----------------------10----7---|---------8---8---x---x---8---x---|
G|-|____________|-|_____________|--|---------9---9---x---x---9---x---|
D|--------3--------------3---------|---------9---9---x---x---9---x---|
A|---------------------------------|---------7---7---x---x---7---x---|
E|---------------------------------|-0-------------------------------|




                                                                         164
                                     C
   1 - + - 2 - + - 3 - + - 4 - + -   1 - + - 2 - + - 3 - + - 4 - + -
e|-7-----7-----7---7---------------|---------------------------------|
B|-8---------------------10----7---|-8----p7p5---8-------7---5---5---|
G|-9--------------|_____________|--|---------------------------------|
D|-9---------------------3---------|---------------------------------|
A|-7-------------------------------|---------------------------------|
E|-|____________|------------------|---------------------------------|
         3
                                       B
   1 - + - 2 - + - 3 - + - 4 - + -     1 - + - 2 - + - 3 - + - 4 - + -
e|-----------------------------------|---------------------------------|
B|-----------------------------------|---------------------------------|
G|---5h7---5---4---5---7---5---4h5p4-|-5-------4---4-------------------|
D|-----------------------------|___|-|---------------------7-------5---|
A|-------------------------------3---|---------------------------------|
E|-----------------------------------|---------------------------------|

                                     Em
   1 - + - 2 - + - 3 - + - 4 - + -   1 - + - 2 - + - 3 - + - 4 - + -
e|---------------------------------|---------------------------------|
B|---------------------------------|---------------------------------|
G|-----------------4-----5-----5---|-5-------4---4---------------4---|
D|-----4---5---7---|____________|--|---------------------7-----------|
A|-----------------------3---------|---------------------------------|
E|---------------------------------|---------------------------------|

                                       Em
   1 - + - 2 - + - 3 - + - 4 - + -     1 - + - 2 - + - 3 - + - 4 - + -
e|-----------------------------------|---------------------------------|
B|-----------------------5-----------|---------------------------------|
G|-----------4---5---7-------7---5---|-7-------7-------5-------4-------|
D|-----4h5h7-------------------------|-0-------------------------------|
A|-----|___|-------------------------|---------------------------------|
E|-------3---------------------------|---------------------------------|

                                         C
   1 - + - 2 - + - 3 - + - 4 - + -       1 - + - 2 - + - 3 - + - 4 - + -
e|-------------------------------------|-----------------------------------|
B|-------------------------------------|-----------------------------------|
G|-7---5---4h5p4-----5---4h5p4---------|-----------------------------------|
D|---------|___|-7-------|___|-7---5---|-7-------5---4h5p4-------------7---|
A|-----------3-------------3-----------|-------------|___|-----7-----------|
E|-------------------------------------|---------------3-------------------|

                                       B
   1 - + - 2 - + - 3 - + - 4 - + -     1 - + - 2 - + - 3 - + - 4 - + -
e|-----------------------------------|-----------------------------------|
B|-----------------------------------|-----------------------------------|
G|-----------------------------------|-4---------------------------------|
D|-----5-------4h5p4---------4---5---|---------7---5-------4h5p4-----4---|
A|-----------------------7-----------|-----------------------------------|
E|-----------------------------------|-----------------------------------|




                                                                               165
                                     Em
   1 - + - 2 - + - 3 - + - 4 - + -   1 - + - 2 - + - 3 - + - 4 - + -
e|---------------------------------|---------------------------------|
B|-----------------5---------------|---------------------------------|
G|-------------4---------4-----5---|-5-------4---4---------------4---|
D|---------5-------|___________|---|---------------------7-----------|
A|-----7-----------------3---------|---------------------------------|
E|---------------------------------|---------------------------------|

                                     Em
   1 - + - 2 - + - 3 - + - 4 - + -   1 - + - 2 - + - 3 - + - 4 - + -
e|-------7-----7---7---------------|---------7---7---x---x---7---x---|
B|-----------------------10----7---|---------8---8---x---x---8---x---|
G|-|____________|-|_____________|--|---------9---9---x---x---9---x---|
D|--------3--------------3---------|---------9---9---x---x---9---x---|
A|---------------------------------|---------7---7---x---x---7---x---|
E|---------------------------------|-0-------------------------------|

                                     C
   1 - + - 2 - + - 3 - + - 4 - + -   1 - + - 2 - + - 3 - + - 4 - + -
e|-7-----7-----7---7---------------|---------8---8---x---x---8---x---|
B|-8---------------------10----7---|---------8---8---x---x---8---x---|
G|-9--------------|_____________|--|---------9---9---x---x---9---x---|
D|-9---------------------3---------|---------10--10--x---x---10--x---|
A|-7-------------------------------|---------10--10--x---x---10--x---|
E|-|____________|------------------|-8-------8---8---x---x---8---x---|
           3
                                        Bb
   1 - + - 2 - + - 3 - + - 4 - + -      1 - + - 2 - + - 3 - + - 4 - + -
e|-8---------------------------------|---------7---7---x---x---7---x---|
B|-8-----7-----8---10----8-----7h8p7-|---------7---7---x---x---7---x---|
G|-9---------------------------------|---------8---8---x---x---8---x---|
D|-10--------------------------------|---------9---9---x---x---9---x---|
A|-10--------------------------------|---------9---9---x---x---9---x---|
E|-8---------------------------------|-7-------7---7---x---x---7---x---|
   |___________|   |_______________|
         3                 3
                                     Em
   1 - + - 2 - + - 3 - + - 4 - + -   1 - + - 2 - + - 3 - + - 4 - + -    1
e|-7-------------------------------|-7-----------------------7-------|-7-
B|-7-------------------7---8-------|-8-----------------------7-------|-8-
G|-8-----------8-h-9---------------|-9-----------------------8-------|-9-
D|-9-------------------------------|-9-----------------------9-------|-9-
A|-9-------------------------------|-7-----------------------9-------|-7-
E|-7-------------------------------|-------------------------7-------|---




                                                                            166
Jason Mraz - I'm Yours

Dbdim : xx1212 or 0x4545
A/G# : 4x222x


Intro: (shuffle beat) (sort of... many possible variations)

    A                                 E
    1 - + - 2 - + - 3 - + - 4 - + -   1 - + - 2 - + - 3 - + - 4 - + -
e|----------------5-----5-----------|---------------0-----------------|
B|------------2-2-------2-----2-2---|-------0-------------0-----------|
G|o-----2-------2-------2-----2-2---|---1-------1---------1-----------|
D|o-----2---------------------2-2---|-----2-------2-------2-----------|
A|--0-------0-------0-------0-------|-----2-------2-------2-----------|
E|----------------------------------|-0-------0-------0-------0---1---|

  F#m                                D
   1 - + - 2 - + - 3 - + - 4 - + -   1 - + - 2 - + - 3 - + - 4 - + -
e|---------------2-----------------|-------0h2-----2h3-----2----------|
B|-------2-------------2-------2---|-----3-------3-------3-------3-3--|
G|-----2-----2---------2-----2-2---|---2-2-----2-2-----2-2-----2-2-2-o|
D|-----4-------4-------4-----4-4-4-|-0-------------------------------o|
A|-----4-------4-------4-------4---|----------------------------------|
E|-2-------2-------2---------------|----------------------------------|



      A
Well you done done me and you bet I felt it
  E
I tried to be chill but you're so hot that I melted
  F#m
I fell right through the cracks
             D
and now I'm trying to get back
           A
Before the cool done run out I'll be giving it my bestest
    E
And nothing's going to stop me but divine intervention
  F#m                           D
I reckon it's again my turn to win some or learn some

    A           E                F#m
But I won't hesitate no more, no more
          D
It cannot wait, I'm yours

A       E       F#m        D




                                                                          167
A
      Well open up your mind and see like me
E
   Open up your plans and damn you're free
F#m                                     D
   Look into your heart and you'll find love love love love
A                                               E
Listen to the music of the moment people dance and sing
                          F#m
We're just one big family
                                   D                     Dbdim
It's your God-forsaken right to be loved love loved love loved


   A              E             F#m
So I won't hesitate no more, no more
          D
It cannot wait, I'm sure
            A            E
There's no need to complicate
              F#m
Our time is short
              D
This is our fate, I'm yours


A       A/G#     F#m     E    D               Dbdim
Tu-tu-tu... Won't you come on scooch on over dear, and I will nibble your ear...
A       A/G#     F#m     E    D               Dbdim
Woooo....

                   A
I've been spending way too long checking my tongue in the mirror
      E
And bending over backwards just to try to see it clearer
  F#m
But my breath fogged up the glass
         D
And so I drew a new face and I laughed
  A
I guess what I've been saying is there ain't no better reason
    E
To rid yourself of vanities and just go with the seasons
F#m
It's what we aim to do
      D
Our name is our virtue

(Without strumming)
    A           E                F#m
But I won't hesitate no more, no more
          D
It cannot wait, I'm yours


(Lyrics from the the chorus at the same time)
I won't hesitate no more, no more
It cannot wait I'm sure
There's no need to complicate
Our time is short
This is our fate, I'm yours
                                                                                   168
A
    open up your mind and see like me
E
  Open up your plan and damn your free
F#m                                       D
    I look into your heart and you'll find the sky is yours
    A                                              E
So please dont please dont please dont there's no need to complicate
           F#m
Cause our time is short
                             D
This is this is this is our faith
          Dbdim
I'm yours...




                                                                       169
Jean Leloup - Alger

Intro:

    Am              G                 Em          G   Am
    1 - + - 2 - + - 3 - + - 4 - + -   1 - + - 2 - + - 3 - + - 4 - + -
e|--5---x-5-x-x-3---x-------x-------|-7---x-7-x-x-3---5-------5--------|
B|--5---x-5-x-x-3---x-------x-------|-8---x-8-x-x-3---5-------5--------|
G|o-5---x-5-x-x-4---x-------x-------|-9---x-9-x-x-4---5-------5-------o|
D|o-7---x-7-x-x-5---x-------x-------|-9---x-9-x-x-5---7-------7-------o| 2x
A|--7---x-7-x-x-5---x-------x-------|-7---x-7-x-x-5---7-------7--------|
E|--5---x-5-x-x-3---x-------x-------|-----x---x-x-3---5-------5--------|


Am               G
Hey les mecs y a une bagnole
 Em             Am
Abandonnée dans le parking
    Am                  G
Ça fait un mois qu'elle y fout rien
     Em            Am
Y a déjà les pneus de crevés

F                   C
Vite vite vite au sixième étage
   G           Am
On va la bombarder Hey
   Am                  G
Et merde il faut faire vite sinon
   Em          Am
Il restera que le klaxon

  Am          G
Oula y a la cité merzoug
         Em           Am
Qui nous ont volé not'ballon d'foot
        Am               G
Tout le monde on monte à la barrière
   Em                Am
Amenez les roches amenez les pierres

   F               C
Ou là là là pauvre Moustapha
      G                   Am
Il a reçu un coup su'le cabochon
   Am                   G
Ou là ça saigne pauvre Moustafa
  Em                 Am
Allez on fout l'camp c'est des cons!

   Am            G            (accord ouvert jusqu'à la fin)
El din   imma el din   baba
   Em            Am
El din   imma el din   baba
   Am            G
El din   imma el din   baba
   Em            Am
El din   imma el din   baba



                                                                              170
  Am             G
À Alger c'est toujours l'été
   Em                Am
On s'amuse bien sur les trottoirs
   Am              G
On va au marchand d'à côté
   Em            Am
Et on achète les olives noires

   F               C
Il y a les rues il y a le port
   G               Am
En bas c'est la casbah
     Am               G
Les Enfants les Macs les Fathmas
   Em         Am
Et la mer Méditerranée

  Am                G
Derrière chez moi à El Biar
   Em            Am
Il y a le marché noir
     Am               G
Les vieux sont assis en tailleur
     Em                     Am
Les femmes qui vendent des porte-bonheur

   F            C
Si tu voyais la marchandise
     G            Am
Les bijoux et les friandises
     F             C
Les couteaux super acérés
     G             Am
Sur les tapis dans les paniers

Am (tout le long)
À l'aide on tue le mouton
Il y a du sang sur les balcons
Après pour enlever la peau
On gonfle avec la pompe à vélo

Allah   ya   baba
Allah   ya   baba, Asmah
Allah   ya   baba
Allah   ya   baba, Asmah la darbouka

(Pause de tam-tam, et on module)
  Bm           A
Hier y a eu la migration
     F#m           Bm
Les bédouins avec leurs moutons
     Bm          A
Ont envahi toute la cité
   F#m           Bm
Toutes les rues étaient bloquées




                                           171
    G            D
Si t'avais vu la gueule des flics
  A                Bm
Devant les rues embouteillées
      Bm                 A
Les bédouins tranquilles prenaient le thé
 F#m                  Bm
Devant la tente sans s'énerver

   Bm             A
Et puis hier j'te jure mon frère
     F#m       Bm
Y'a neigé hier à Alger
     Bm             A
Les oiseaux pour se réchauffer
 F#m                   Bm
Allaient se jeter sur la chaussée

   G               D
Et puis là là oui par milliers
      A                   Bm
Se faisaient écrabouiller Hey
     Bm                 A
J'te jure mon frère il a neigé
     F#m        Bm
Il a neigé hier à Alger

(Juste des tam-tam)
C'est là aussi que j'l'ai connue
La première fille que j'l'ai perdue
La première fille que j'ai aimée
La première fille j'l'ai caressée

En face il y avait la casbah
Les Enfants les Mac les Fathmas
Les olives et les oliviers
Et la mer Méditerranée
Et la mer Méditerranée

tam-tam pour finir avec:

e|-/10----10----/9-----10-|
B|-/12----10----/10----12-|
G|-/11----11----/9-----11-|
D|------------------------|
A|------------------------|
E|------------------------|

Selon le rythme suivant
  1 - + - 2 - + - 3 - + - 4 - + -   1 - + - 2 - + - 3 - + - 4 - + -
|-1-------1---x-2---2---2-2---x-x-|-3-------3---x-4---4---4-4---x-x-|




                                                                        172
Jean Leloup - Balade à Toronto

       Am    Em   Dm/F   F     C     E    Am7
e|-----0-----0-----1-----1-----0-----0-----0-----|
B|-----1-----0-----3-----1-----1-----0-----1-----|
G|-----2-----0-----2-----2-----0-----1-----0-----|
D|-----2-----2-----3-----3-----2-----2-----2-----|
A|-----0-----2-----------3-----3-----2-----0-----|
E|-----------0-----------1-----------0-----------|


Intro:
   Dm/F      Em       Am                3 + 4 +
e|--1--------0--------0-------------------------|
B|--3--------0--------1-------------------------|
G|--2--------0--------2-------------------------|
D|--3--------2--------2-------------------------|
A|-----------2--------0-------------------------|
E|-----------0--------------------------0---3---|

   Am                                  Em
   1 + 2 + 3 + 4 +   1 + 2 + 3 + 4 +   1 + 2 + 3 + 4 +   1 + 2 + 3 + 4 +
e|-----0-0---------|-----------------|-----------0-0-0-|-----0-0---0-0-0-|
B|-----1-1---------|-----------1---1-|-----0-----0-0-0-|-----0-0---0-0-0-|
G|-----2-2---0---0-|---0-----0---0-0-|-----0-----0-0-0-|-----0-0---0-0-0-|
D|-----2-2-----2---|-----0h2-----2---|-----2-----2-2-2-|-2---2-2---------|
A|-0---------------|-3---------------|-----------------|-----------------|
E|-----------------|-----------------|-0---------------|-----------------|

  Dm/F                                 Em
   1 + 2 + 3 + 4 +   1 + 2 + 3 + 4 +   1 + 2 + 3 + 4 +   1 + 2 + 3 + 4 +
e|-----1-1---1-1-1-|-----------------|-----0-0---0-0-0-|-0---0---0---0---|
B|-----3-3---3-3-3-|-------------3---|-----0-0---0-0-0-|/5---3---0---0---|
G|-----2-2---2-2-2-|-2-----------2---|-----0-0---0-0-0-|-----------------|
D|-3---------------|-3---0---3-------|-----2-2---------|-----------------|
A|-----------------|-----------------|-----2-2---------|-----------------|
E|-----------------|-----------------|-0---------------|-----------------|

   Am                                  Em
   1 + 2 + 3 + 4 +   1 + 2 + 3 + 4 +   1 + 2 + 3 + 4 +   1 + 2 + 3 + 4 +
e|-----0-0---0-0-0-|-----0-0---0-0-0-|-----0-0---0-3-0-|-----0-0---0-0-0-|
B|-----1-1---1-1-1-|-----1-1---1-1-1-|-----0-0---0-0-0-|-----0-0---0-0-0-|
G|-----2-2---2-2-2-|-----2-2---2-2-2-|-----0-0---0-0-0-|-----0-0---0-0-0-|
D|-----2-2---2-2-2-|-----2-2---2-2-2-|-----2-2---2-2-2-|-----2-2---2-2-2-|
A|-0---------------|-0---------------|-----------------|-----------------|
E|-----------------|-----------------|-0---------------|-0---------------|

  Dm/F                                 Em
   1 + 2 + 3 + 4 +   1 + 2 + 3 + 4 +   1 + 2 + 3 + 4 +   1 + 2 + 3 + 4 +
e|-----1-1---1-0-0-|-----0-0---0-0-0-|-----0-0---0-0-0-|-----0-0---------|
B|-----3-3---3-3-3-|-----3-3---3-3-3-|-----0-0---0-0-0-|-----0-0---------|
G|-----2-2---2-2-2-|-----2-2---2-2-2-|-----0-0---0-0-0-|-----0-0---------|
D|-3---------------|-3---------------|-----2-2---2-2-2-|-----2-2---------|
A|-----------------|-----------------|-----------------|-------------2---|
E|-----------------|-----------------|-0---------------|-0-------0-------|




                                                                             173
   Am                                  Em
   1 + 2 + 3 + 4 +   1 + 2 + 3 + 4 +   1 + 2 + 3 + 4 +   1 + 2 + 3 + 4 +
e|-----0-0---0-0-0-|-----0-0---0-0-0-|-----0-0---------|-------0---0-0-0-|
B|-----1-1---1-1-1-|-----1-1---1-1-1-|-----0-0---------|-------0---0-0-0-|
G|-----2-2---2-2-2-|-----2-2---2-2-2-|-----0-0---0---0-|-----0-0---0-0-0-|
D|-----2-2---2-2-2-|-----2-2---2-2-2-|-----2-2-----2---|-0h2---2---2-2-2-|
A|-0---------------|-0---------------|-----------------|-----------------|
E|-----------------|-----------------|-0---------------|-----------------|

  Dm/F                                 Em
   1 + 2 + 3 + 4 +   1 + 2 + 3 + 4 +   1 + 2 + 3 + 4 +   1 + 2 + 3 + 4 +
e|-----1-1---1-0-0-|-----0-0---0-0-0-|-----0-0---0-0-0-|-----0-0---------|
B|-----3-3---3-3-3-|-----3-3---3-3-3-|-----0-0---0-0-0-|-----0-0---------|
G|-----2-2---2-2-2-|-----2-2---2-2-2-|-----0-0---0-0-0-|-----0-0---------|
D|-3---------------|-3---------------|-----2-2---2-2-2-|-----2-2---------|
A|-----------------|-----------------|-----------------|-------------2---|
E|-----------------|-----------------|-0---------------|-0-------0-------|


        Am                                 Em
Aujourd'hui la fumée d'incendie a jauni le ciel et rougi le soleil
      Dm/F                                           Em
Les étoiles du nord nous rappellent la mort et tu m'appelles encore
       Am                                               Em
Tu dormais sur le banc tandis que je conduisais et j'espère ne jamais arriver
Dm/F                   Em
     Regarde, les étoiles

             Am        Em            Dm/F                    Em
Tant qu'il y aura des étoiles sur le bord de la route nous devrons nous arrêter
             Am         Em             Dm/F          Em
Tant qu'il y aura des rivières nous pourrons nous baigner
        Am                        Em               Dm/F       Em
Et tant qu'il y aura le feu nous irons peu à peu, été comme hiver

    F            C          E           Am
Vagabond, millionnaire, amoureux, zilliardaire
    F            C          E
Vagabond, millionnaire, amoureux

         C           Am7
Le temps passe et un jour on est vieux
                     Em                                             Dm/F
Et puis seul et rien ne reste plus que la fierté d'avoir aimé correctement
                                                       Em
Ou la honte ou les tourments de ne pas avoir compris à temps

Attend j'ai quelque chose à te dire

             Am                                  Em
   3 + 4 +   1 + 2 + 3 + 4 +   1 + 2 + 3 + 4 +   1 + 2 + 3 + 4 +   1 + 2 + 3 + 4 +
e|---------|-----0-0---0-0-0-|-----0-0---0-0-0-|-----0-0---0-0-0-|-----0-0---0-0-0-|
B|---------|-----1-1---1-1-1-|-----1-1---1-1-1-|-----0-0---0-0-0-|-----0-0---0-0-0-|
G|---------|-----2-2---2-2-2-|-----2-2---2-2-2-|-----0-0---0-0-0-|-----0-0---0-0-0-|
D|---------|-----2-2---2-2-2-|-----2-2---2-2-2-|-----2-2---2-2-2-|-----2-2---2-2-2-|
A|---------|-0---------------|-0---------------|-----------------|-----------------|
E|-0---3---|-----------------|-----------------|-0---------------|-0---------------|




                                                                                       174
  Dm/F                                 Em
   1 + 2 + 3 + 4 +   1 + 2 + 3 + 4 +   1 + 2 + 3 + 4 +   1 + 2 + 3 + 4 +
e|-----1-1---1-1-1-|-----1-1---1-1-1-|-----0-0---0-0-0-|-----------------|
B|-----3-3---3-3-3-|-----3-3---3-3-3-|-----0-0---0-0-0-|-----------------|
G|-----2-2---2-2-2-|-----2-2---2-2-2-|-----0-0---0-0-0-|-------0---0---0-|
D|-3---------------|-3---------------|-----2-2---2-2-2-|-----------------|
A|-----------------|-----------------|-----------------|---------2---2---|
E|-----------------|-----------------|-0---------------|-0---3-----------|

   Am                                  Em
   1 + 2 + 3 + 4 +   1 + 2 + 3 + 4 +   1 + 2 + 3 + 4 +   1 + 2 + 3 + 4 +
e|-----0-0---0-0-0-|-----------------|-----0-0---0-0-0-|-----0-0---0-0-0-|
B|-----1-1---1-1-1-|-----------------|-----0-0---0-0-0-|-----0-0---0-0-0-|
G|-----2-2---2-2-2-|---0---0---0---0-|-----0-0---0-0-0-|-----0-0---0-0-0-|
D|-----2-2---2-2-2-|-----0---2-------|-----2-2---2-2-2-|-----2-2---2-2-2-|
A|-0---------------|-3-----------3---|-2---------------|-----------------|
E|-----------------|-----------------|-----------------|-0---------------|

  Dm/F                                 Em
   1 + 2 + 3 + 4 +   1 + 2 + 3 + 4 +   1 + 2 + 3 + 4 +   1 + 2 + 3 + 4 +
e|-----1-1---1-0-0-|-----0-0---0-0-0-|-----0-0---0-0-0-|-----0-0---------|
B|-----3-3---3-3-3-|-----3-3---3-3-3-|-----0-0---0-0-0-|-----0-0---------|
G|-----2-2---2-2-2-|-----2-2---2-2-2-|-----0-0---0-0-0-|-----0-0---------|
D|-3---------------|-3---------------|-----2-2---2-2-2-|-----2-2---------|
A|-----------------|-----------------|-----------------|-------------2---|
E|-----------------|-----------------|-0---------------|-0-------0-------|


Am                       Em            Dm/F                     Em
  Tant qu'il y aura des étoiles sur le bord de la route nous pourrons nous arrêter
             Am         Em             Dm/F          Em
Tant qu'il y aura des rivières nous pourrons nous baigner
       Am                      Em              Dm/F            Em
Et que plus jamais rien ne redoute d'autre destin que celui du doute
          Am                Em            Dm/F
Jamais je n'oublierai les étoiles sur la route de Toronto
      Em                              F
Et ce jour sur cette plage du lac Ontario

       C           E           Am
Millionnaire, amoureux, zilliardaire
    F            C          E      E <- Final
Vagabond, millionnaire, amoureux




                                                                                     175
Jean Leloup - Barcelone

       G     C     D     Em    Bm    Cx    Gx   D/F# Dx
e|-----3-----3-----5-----0-----2-----0-----3-----2-----2-----|
B|-----3-----5-----7-----0-----3-----1-----0-----3-----3-----|
G|-----4-----5-----7-----0-----4-----0-----0-----2-----2-----|
D|-----5-----5-----7-----2-----4-----2-----0-----0-----0-----|
A|-----5-----3-----5-----2-----2-----3-----2-----0-----------|
E|-----3-----------------0-----------------3-----2-----------|

Riff 1 (et intro):
    G               C
    1 - + - 2 - + - 3 - + - 4 - + -
e|--3---3---3-3-3-3------------------|
B|--3---3---3-3-3-3-5--b6---5---5-5--|
G|o-4---4---4-4-4-4-5--b7---5---5-5-o|
D|o-5---5---5-5-5-5-------------5-5-o|
A|--5---5---5-5-5-5------------------|
E|--3---3---3-3-3-3------------------|

Riff 2 (dans le refrain):
   Bm
   1 - + - 2 - + - 3 - + - 4 - + -
e|-2---2-2-2-2-2---2---2-----------|
B|-3---3-3-3-3-3---3---3-----------|
G|-4---4-4-4-4-4---4---4-----------|
D|-4---4-4-4-4-4---4---4-----------|
A|-2---2-2-2-2-2---2---2---0---2---|
E|---------------------------------|


Intro: Riff 1 <-- 4x

G                              C                        G
  Le soleil brille à Barcelone, un Américain fell alone
                           D                            G
Il ne sait pas ce qui l'attend au coin de la rue en rentrant
                           C                         G
Qu'il est loin mon pays natal s'est dit la grosse Suédoise
                D                  G
qui vient de se faire braquer par un negro sur Rue des Assassins
                             C                                G
Le soleil fait chauffer la place où se retrouvent tous les paumés
                                 D                                 G
Aux touristes font des grimaces les chiens, les chats, les pesetas
                     C                                    G
On a cherché les extasiés mais c'était vraiment hors de prix
           D             G                 C                D
On s'est rabattu sur l'absinthe à Barcelone, à Barcelone


Em                                 Bm (riff 2)
   La dèche m'attend, je prends du vin
Cx                                    Gx  D/F#
   Et elle m'a laissé sur le carreau
Em                                 Bm (riff 2)
   La dèche m'attend, je prends du vin
Cx                                   Gx Dx         G
   Elle est allée r'voir les toxicos       à Amsterdam


                                                                       176
Riff 1
    C            G
         à Amsterdam       3x

G                              C                                 G
  Les keufs sont habillés d'kaki, sont vraiment fiers de leur képi
                            D                       G
Ça va vite et puis patatrack t'as reçu un coup de matraque
                              C                                  G
Les pompes sont réutilisables se disent les gamins qui s'amusent
        D                    G           C             D
À se lancer des gros cailloux à Barcelone, à Barcelone


Em                                 Bm (riff 2)
   La dèche m'attend, je prends du vin
Cx                                    Gx   D/F#
   Et elle m'a laissé sur le carreau
Em                                 Bm (riff 2)
   La dèche m'attend, je prends du vin
Cx                                   Gx Dx          G
   Elle est allée r'voir les toxicos        à Amsterdam

Riff 1
    C            G
         à Amsterdam       3x

G                          C                                G
  On a volé tout le travail d'Anabel qui maintenant braille
                             D                                     G
Elle leur avait pourtant confié mais ils étaient bien trop bourrés
                        C                            G
Qui vaincra bande d'enculés? le contrôleur, les garnements?
            D                  G          C             D
Pas de fric pour le supplément à Barcelone, à Barcelone


Em                                 Bm (riff 2)
   La dèche m'attend, je prends du vin
Cx                                    Gx  D/F#
   Et elle m'a laissé sur le carreau
Em                                 Bm (riff 2)
   La dèche m'attend, je prends du vin
Cx                                   Gx Dx
   Elle est allée r'voir les toxicos

Cx                Dx               Bm
     Amour quinze ans insoutenable
                                        Cx
Amour trente ans presqu'invivable
         Dx               Em
Amour toujours inévitable

À barcelone




                                                                       177
Solo:
   Em                                Bm (riff 2)
   1 - + - 2 - + - 3 - + - 4 - + -   1 - + - 2 - + - 3 - + - 4 - + -
e|---------------------------------|---------------------------------|
B|---------------------------------|---------------------------------|
G|-2p0-----2p0-----2p0-----2p0-----|---------------------------------|
D|-----2p0-----2p0-----2p0-----2p0-|/5-------------------------------|
A|---------------------------------|-------------------------0---2---|
E|---------------------------------|---------------------------------|

   Cx                                Gx             D/F#
   1 - + - 2 - + - 3 - + - 4 - + -   1 - + - 2 - + - 3 - + - 4 - + -
e|---------------------------------|---------------------------------|
B|---------------------------------|---------------------------------|
G|---------------------------------|---------------------------------|
D|-------------2--/4-------2---0---|-----------------------------2h5-|
A|-3-------------------------------|-2-----------2---0-------2h5-----|
E|---------------------------------|---------------------------------|

   Em                                Bm (riff 2)
   1 - + - 2 - + - 3 - + - 4 - + -   1 - + - 2 - + - 3 - + - 4 - + -
e|---------------------------------|---------------------------------|
B|---------------------------------|---------------------------------|
G|-2p0-----2p0-----2p0-----2p0-----|---------------------------------|
D|-----2p0-----2p0-----2p0-----2p0-|/5-------------------------------|
A|---------------------------------|-------------------------0---2---|
E|---------------------------------|---------------------------------|

   Cx                                Gx             D/F#
   1 - + - 2 - + - 3 - + - 4 - + -   1 - + - 2 - + - 3 - + - 4 - + -
e|---------------------------------|---------------------------------|
B|---------------------------------|---------------------------------|
G|---------------------------------|---------2-----------------------|
D|-------------2--/4-------2---4---|-5-----------5---4---------------|
A|-3-------------------------------|-------------------------5p2-----|
E|---------------------------------|-----------------------------5p3-|


Em                              Bm (riff 2)                   Cx
  La ville s'est faite tout belle, je pense encore à Isabelle
                             Gx                   D/F#           Em
Qui m'a laissé sur le carreau pour aller r'joindre les toxicos
                                Bm (riff 2)                            Cx
Une fille qui s'endort dans un bar, ses cheveux traînant dans la bière
                             Gx              Dx                G
Se sent comme une serpillière, se sent comme une serpillière

C            G      C           G      C           G
     à Amsterdam,       à Amsterdam,       à Amsterdam




                                                                            178
Jean Leloup - Bertha

(5/3 signifie 5e corde, 3e frette)

Riff des couplets:
   Am      C         B       E         Am      C         B       E
   1 + 2 + 3 + 4 +   1 + 2 + 3 + 4 +   1 + 2 + 3 + 4 +   1 + 2 + 3 + 4 +
e|---5---5---8---8-|---7---7---4---4-|---5---5---8---8-|---7---7---12--12|
B|---5---5---8---8-|---7---7---5---5-|---5---5---8---8-|---7---7---9---9-|
G|---5---5---9---9-|---8---8---4---4-|---5---5---9---9-|---8---8---9---9-|
D|-----------------|-----------------|-----------------|-----------------|
A|-----------------|-----------------|-----------------|-----------------|
E|-----------------|-----------------|-----------------|-----------------|

   Am      C         B       E         Am      C         B       E   Am
   1 + 2 + 3 + 4 +   1 + 2 + 3 + 4 +   1 + 2 + 3 + 4 +   1 + 2 + 3 + 4 +
e|---5---5---8---8-|---7---7---4---4-|---5---5---8---8-|---7-7---4---5---|
B|---5---5---8---8-|---7---7---5---5-|---5---5---8---8-|---7-7---5---5---|
G|---5---5---9---9-|---8---8---4---4-|---5---5---9---9-|---8-8---4---5---|
D|-----------------|-----------------|-----------------|-----------------|
A|-----------------|-----------------|-----------------|-----------------|
E|-----------------|-----------------|-----------------|-----------------|

Riff du refrain
   Am                F       E         Am                F       E
   1 + 2 + 3 + 4 +   1 + 2 + 3 + 4 +   1 + 2 + 3 + 4 +   1 + 2 + 3 + 4 +
e|---5---5---5---5-|---5---5---4---4-|---5---5---5---5-|---5---5---4---4-|
B|---5---5---5---5-|---6---6---5---5-|---5---5---5---5-|---6---6---5---5-|
G|---5---5---5---5-|---5---5---4---4-|---5---5---5---5-|---5---5---4---4-|
D|-----------------|-----------------|-----------------|-----------------|
A|-----------------|-----------------|-----------------|-----------------|
E|-----------------|-----------------|-----------------|-----------------|

   Am                F       E         Am                F       E   Am
   1 + 2 + 3 + 4 +   1 + 2 + 3 + 4 +   1 + 2 + 3 + 4 +   1 + 2 + 3 + 4 +
e|---5---5---5---5-|---5---5---4---4-|---5---5---5---5-|---5-5---4---5---|
B|---5---5---5---5-|---6---6---5---5-|---5---5---5---5-|---6-6---5---5---|
G|---5---5---5---5-|---5---5---4---4-|---5---5---5---5-|---5-5---4---5---|
D|-----------------|-----------------|-----------------|-----------------|
A|-----------------|-----------------|-----------------|-----------------|
E|-----------------|-----------------|-----------------|-----------------|

Intro:   Big fat mamaaaaaa!!!!!!!

   Am
    1 + 2 + 3 + 4 +
e|----5---5---5---5--|
B|----5---5---5---5--|
G|o---5---5---5---5-o|
D|o-----------------o|
A|-------------------|
E|-------------------|




                                                                             179
Riff 1:
  Am               C                 B               E
   1 - + - 2 - + - 3 - + - 4 - + -   1 - + - 2 - + - 3 - + - 4 - + -
e|---------------------------------|---------------------------------|
B|---------------------------------|---------------------------------|
G|-----------------9-----------9---|-8-----------8---7---------------|
D|-7-7-7-7-7---10------------------|---------------------10--7-------|
A|---------------------------------|-----------------------------10--|
E|---------------------------------|---------------------------------|

  Am               C                 B               E
   1 - + - 2 - + - 3 - + - 4 - + -   1 - + - 2 - + - 3 - + - 4 - + -
e|---------------------------------|-------------------------17\-----|
B|---------------------------------|-13---12---13--------------------|
G|-----------------9---------------|----------------12---------------|
D|-7-7-7-7-7---10------------------|---------------------------------|
A|---------------------------------|---------------------------------|
E|---------------------------------|---------------------------------|

  Am               C                 B               E
   1 - + - 2 - + - 3 - + - 4 - + -   1 - + - 2 - + - 3 - + - 4 - + -
e|---------------------------------|---------------------------------|
B|---------------------------------|---------------------------------|
G|-----------------9-----------9---|-8-----------8---7---------------|
D|-7-7-7-7-7---10------------------|---------------------10--7-------|
A|---------------------------------|-----------------------------10--|
E|---------------------------------|---------------------------------|

  Am               C                 B               E
   1 - + - 2 - + - 3 - + - 4 - + -   1 - + - 2 - + - 3 - + - 4 - + -
e|---------------------------------|---------------------------------|
B|---------------------------------|---------------------------------|
G|-----------------9---------------|-8-------------------------------|
D|-7-7-7-7-7---10------------------|---------10------7---------------|
A|---------------------------------|---------------------------------|
E|---------------------------------|---------------------------------|


Riff des couplets:
Am           C         B             E
Affalée sur son divan de velours et de brocart,
Am                  C              B                 E
   Bertha, la femme la plus grosse du monde, attend son dîner
Am                       C         B                   E
   Des grenouilles pour commencer, foie de volailles, les pâtes
Am                C          B               E   Am
   Et puis un peu d'armagnac pour ouvrir son appétit


Riff du refrain:
Am               F      E
Comme elle mange la Bertha
Am          F    E
Mastique le pachyderme
Am            F     E
L'énorme est éléphantesque
Am                    F E Am
Comme elle est belle et grotesque


Riff 1
                                                                         180
Riff des couplets:
Am            C            B                  E
Bertha avale coup sur coup des grenouilles au chocolat
Am              C      B               E
Des perdrix au caramel puis de porc douze genoux
Am                C        B           E
Puis enfin c'est le potage sur chacune de ses joues
Am          C            B               E      Am
Dégoulinent les morceaux de foie gras et de poireaux


Riff du refrain:
Am               F      E
Comme elle mange la Bertha
Am          F    E
Mastique le pachyderme
Am            F     E
L'énorme est éléphantesque
Am                    F E Am
Comme elle est belle et grotesque


Pendant la prochaine partie, jouer:
e|-----------------|-----------------|-----------------|-----------------|---|
B|-----------------|-----------------|-----------------|-----------------|---|
G|-----------------|-----------------|-----------------|-----------------|---|
D|-----------------|-----------------|-----------------|-----------------|---|
A|-5---4---3---4---|-5---4---3---4---|-----------------|-----------------|---|
E|-----------------|-----------------|-5---4---3---4---|-5---4---3---4---|-0-|

Les biftecks et les côtelettes cuits à la sauce d'abricots

Arrivent par en arrière, arrivent par en arrière

Douze camion de livreurs nous en annoncent l'odeur

Les crèmes et vins capiteux, les enfant courent joyeux

Les enfant courent joyeux en chantant:


Riff du refrain:
Am               F      E
Comme elle mange la Bertha
Am          F    E
Mastique le pachyderme
Am            F     E
L'énorme est éléphantesque
Am                    F E Am
Comme elle est belle et grotesque




                                                                                 181
Riff des couplets
Am                C             B              E
Mais que dire des cent fromages qui ensuite la couvriront
Am         C         B            E
Coulera le camembert avant l'arrivée d'Albert
Am              C         B                E
Contre qui elle s'étalera sous ses plis et ses remous
Am (tenir l'accord)
Elle l'étouffe entre ses fesses
       6/0                                               6/5
Et il jouit le petit rat et il crie ah ah, ah ah ah ah

                  5/3           5/2            6/0
Mais que dire des cent fromages qui ensuite la couvriront

Coulera le camembert avant l'arrivée d'Albert

Contre qui elle s'étalera sous ses plis et ses remous

Elle l'étouffe entre ses fesses et il jouit le scélérat

Et il crie le petit pois aaaaaaaaaaaaaaaaaaaaah


Riff du refrain:
Am               F      E
Comme elle mange la Bertha
Am          F    E
Mastique le pachyderme
Am            F     E
L'énorme est éléphantesque
Am                    F E Am
Comme elle est belle et grotesque


Ensuite:
   Am                F       E         Am                F       E
   1 + 2 + 3 + 4 +   1 + 2 + 3 + 4 +   1 + 2 + 3 + 4 +   1 + 2 + 3 + 4 +
e|-----0-0-----0---|-----1-1-----0---|-----0-0-----0---|-----1-1-----0---|
B|-----1-1-----1---|-----1-1-----0---|-----1-1-----1---|-----1-1-----0---|
G|-----2-2-----2---|-----2-2-----1---|-----2-2-----2---|-----2-2-----1---|
D|-----2-2-----2---|-----3-3-----2---|-----2-2-----2---|-----3-3-----2---|
A|-----0-0-----0---|-----3-3-----2---|-----0-0-----0---|-----3-3-----2---|
E|-----------------|-------------0---|-----------------|-------------0---|

   Am                F       E         Am                F       E   Am
   1 + 2 + 3 + 4 +   1 + 2 + 3 + 4 +   1 + 2 + 3 + 4 +   1 + 2 + 3 + 4 +
e|-----0-0-----0---|-----1-1-----0---|-----0-0-----0---|-----1---0---0---|
B|-----1-1-----1---|-----1-1-----0---|-----1-1-----1---|-----1---0---1---|
G|-----2-2-----2---|-----2-2-----1---|-----2-2-----2---|-----2---1---2---|
D|-----2-2-----2---|-----3-3-----2---|-----2-2-----2---|-----3---2---2---|
A|-----0-0-----0---|-----3-3-----2---|-----0-0-----0---|-----3---2---0---|
E|-----------------|-------------0---|-----------------|---------0-------|




                                                                             182
Jean Leloup - Cookie

Intro (et riff pour C):
    C
    1   +   2   +   3   +   4   +     1   +   2   +   3   +   4   +
e|----------------------------------|----------------------------------|
B|----------------------------------|----------------------------------|
G|o---------------------------------|---------------------------------o|
D|o---------------------------------|---------------------------------o|
A|--10------12--10--12--13--12--10--|-----10--12------13--12------10---|
E|--8-------8---8---8---8---8---8---|-----8---8-------8---8-------8----|

Riff de l'intro: 4x


C
Dans les VC nickelés de son endroit préféré

Elle vient juste de rentrer pour poudrer son joli nez

Sur la plate-forme blanche tout doucement elle se penche

Retenant ses longs cheveux de tomber devant ses yeux


G                        Bb
Y'a des filles comme ça qui ne s'arrêteront pas
F
Y'a rien à faire c'est l'enfer rien à faire elle exagère
G                     Bb                                  C
Vie et mort de Cookie qui aimait trop la couleur rouge ou jaune


C
Je suis si bien si tranquille dit-elle à Marie-Lucille

Qui a les dents toutes serrées elle est vraiment trop crispée

Je me demande ce qu'elle a pris encore de la cochonnnerie

Heureusement que j'ai des amis eux au moins ils m'ont compris


   G                       Bb
Oh y'a des filles comme ça qui ne s'arrêteront pas
F
Y'a rien à faire c'est l'enfer rien à faire elle exagère
G                     Bb                                  C
Bie et mort de Cookie qui aimait trop la couleur rouge ou jaune


Solo:
   C
   1   -   +   -   2   -   +   -   3   -   +   -   4   -   +   -
e|-------------8---------------8---------------8-----------8---8--|
B|-------8---------------8-----------------8----------------------|
G|10b12-----------10b12-----------10b12---------------------------|
D|-^_____3_____^---^_____3_____^------------------10b12-----------|
A|----------------------------------------------------------------|
E|----------------------------------------------------------------|

                                                                           183
   C
   1   -   +   -   2   -   +   -   3   -   +   -   4   -   +   -
e|-11--8-------8--------------------------------------------------|
B|---------11------11--8-------8----------------------------------|
G|-------------------------10------10--8---8-------8-------8------|
D|---------------------------------------------10-----------------|
A|----------------------------------------------------------------|
E|----------------------------------------------------------------|

   C
   1   -   +   -   2   -   +   -   3   -   +   -   4   -   +   -
e|----------------------------------------------------------------|
B|-----------------8-----------10------8--------------------------|
G|-----------------8-----------10------8--------------------------|
D|-10------10--------------10----------------------10------8------|
A|----------------------------------------------------------------|
E|----------------------------------------------------------------|

   C
   1   -   +   -   2   -   +   -   3   -   +   -   4   -   +   -
e|----------------------------------------------------------------|
B|-----------------8-----------8-------8-----------10------8------|
G|-----------------8-----------8-------8-----------10------8------|
D|-8--h10--10--10----------10-------------------------------------|
A|----------------------------------------------------------------|
E|----------------------------------------------------------------|

   Bb
   1   -   +   -   2   -   +   -   3   -   +   -   4   -   +   -
e|----------------------------------------------------------------|
B|10b11--------------------------10b11----r10------8-------10-----|
G|10b12--------------------------10b12----r10------8-------10-----|
D|----------------------------------------------------------------|
A|----------------------------------------------------------------|
E|----------------------------------------------------------------|

   F
   1   -   +   -   2   -   +   -   3   -   +   -   4   -   +   -
e|----------------------------------------------------------------|
B|----------------------------------------------------------------|
G|-------------------------10----10b12-----8-------8--------------|
D|--------------------------------------------10-----------10--8--|
A|----------------------------------------------------------------|
E|----------------------------------------------------------------|

   C
   1   -   +   -   2   -   +   -   3   -   +   -   4   -   +   -
e|----------------------------------------------------------------|
B|-----------------8-----------8-------8-----------10------8------|
G|-----------------8-----------8-------8-----------10------8------|
D|-10------10--10----------10-------------------------------------|
A|----------------------------------------------------------------|
E|----------------------------------------------------------------|




                                                                      184
   C
   1   -   +   -   2   -   +   -   3   -   +   -   4   -   +   -
e|----------------------------------------------------------------|
B|-----------------8-----------10------8--------------------------|
G|-----------------8-----------10------8--------------------------|
D|-8--h10--10--10----------10----------------------10------8------|
A|----------------------------------------------------------------|
E|----------------------------------------------------------------|

   Bb
   1   -   +   -   2   -   +   -   3   -   +   -   4   -   +   -
e|----------------------------------------------------------------|
B|10b11--------------------------10b11----r10------8-------10-----|
G|10b12--------------------------10b12----r10------8-------10-----|
D|----------------------------------------------------------------|
A|----------------------------------------------------------------|
E|----------------------------------------------------------------|

   F
   1 + 2 + 3 + 4 + . + . +   1
e|-------------------------|---
B|-------------------------|---
G|-------------------------|---
D|---------5\3-----------4-|-5-
A|-------------1---------2-|-3-
E|---0-1/3-----------------|---


C
Comme elle est belle quand elle rit elle ressemble à un cookie

Tout plein de sucre candy dans son joli nez petit

Serait-ce la poudre de riz qui lui donne cet air fleuri

Blanc comme porcelaine froid comme un oeil de murène
D
Et ça n'en finirait plus si elle ne devait rentrer

Elle s'engage dans la rue une auto de la frapper
 C
Sur le sol sa tête éclate mais le sang pisse écarlate

Et bon sang qu'elle s'éclate   et bon sang qu'elle s'éclate


G                        Bb
y'a des filles comme ça qui ne s'arrêteront pas
F
y'a rien à faire c'est l'enfer rien à faire elle exagère
G                     Bb                                  C
vie et mort de cookie qui aimait trop la couleur rouge ou jaune

Rouge ou jaune...
Rouge ou jaune...
Rouge ou jaune...
              G       C <= finale
Rouge ou jaune...




                                                                      185
Jean Leloup - Cruel Song

   Bbsus2   Gm Csus2    Am    Bb
e|----1-----3-----3-----0-----6----
B|----1-----3-----3-----1-----6----
G|----3-----3-----5-----2-----7----
D|----3-----5-----5-----2-----8----
A|----1-----5-----3-----0-----8----
E|----------3-----------------6----



Shuffle beat

   1 + 2 + 3 + 4 +
e|-----------------|
B|-----------------|
G|-----------------|
D|-----------7-5-3-|
A|-----5-7-8-------|
E|---5-------------|

   Dm      A         G           F     Dm      A         G           A
   1 + 2 + 3 + 4 +   1 + 2 + 3 + 4 +   1 + 2 + 3 + 4 +   1 + 2 + 3 + 4 +
e|---1-1-x---0-0-3-|---3-x-3-3-1-1-x-|---1-1-x---0-0-3-|-----3-x-3/5-5-x-|
B|---3-3-x---2-2-0-|---0-x-0-0-1-1-x-|---3-3-x---2-2-3-|-----3-x-3/5-5-x-|
G|-----2-x-2-2-2-0-|---0-x-0-0-2-2-x-|-----2-x-2-2-2-4-|-----4-x-4/6-6-x-|
D|-0---0-x-2-2-2-0-|---0-x-0-0-3-3-x-|-0---0-x-2-2-2-5-|---5-5-x-5/7-7-x-|
A|---------0-----2-|---2-x-2-2-3-3---|---------0-----5-|---5-5-x-5/7-7---|
E|---------------3-|---3-x-3-3-1-1---|---------------3-|---3-3-x-3/5-5---|

   Dm      A         G           F     Dm      A         G
   1 + 2 + 3 + 4 +   1 + 2 + 3 + 4 +   1 + 2 + 3 + 4 +   1 + 2 + 3 + 4 +
e|-1-1-1-x---0-0-3-|---3-3-x-3-x-1-x-|---1-1-x---0-0-3-|---3-3-3-3-3-3-x-|
B|-3-3-3-x---2-2-0-|---0-0-x-0-x-1-x-|---3-3-x---2-2-0-|---0-0-0-0-0-0-x-|
G|-2---2-x-2-2-2-0-|---0-0-x-0-x-2-x-|-2-2-2-x-2-2-2-0-|---0-0-0-0-0-0-x-|
D|-0---0-x-2-2-2-0-|---0-0-x-0-x-3-x-|-0---0-x-2-2-2-0-|---0-0-0-0-0-0-x-|
A|---------0---0-2-|---2-2-x-2-x-3---|---------0-----2-|---2-2-2-2-2-2---|
E|---------------3-|---3-3-x-3-x-1---|---------------3-|---3-3-3-3-3-3---|


    Dm             A       G
One morning he gave me a flower
          Dm         A                G     F
With that beautiful smile in his eyes
    Dm             A       G
One morning he gave me a flower
    Dm           A           G
One heaven could not provide


Dm   Bbsus2    Gm              Csus2 Dm   Bbsus2   Gm   Csus2
Cruel sun      no one to change your mind
Dm   Bbsus2    Gm              Csus2 Dm   Bbsus2   Gm   Csus2
Cruel sun      no one to change your mind




                                                                             186
     Dm       A             G
That old sun watching from over
           Dm         A           G                 A
Felt the flower child so close to light
     Dm       A             G
That old sun watching from over
        Dm          A       G
So he turned the boy to the night


Dm   Bbsus2      Gm               C     Dm   Bbsus2   Gm            Csus2
Cruel sun        no one to change your mind              no         one to change
Dm   Bbsus2      Gm               Csus2 Bbsus2                      Csus2
Cruel sun        no one to change        no one to change           no one to change


   Dm                    Am
As darkness ravages his eyes
    Gm           Gm
The mother child has gone blind
Dm                Am
Stumbling through flowers delight
        Gm            Gm
And the sun is shining proud
Bb
Cheering such a beautiful fall
           C
It was the flower child after all


Dm   Bbsus2      Gm              Csus2 Dm   Bbsus2           Gm     Csus2
Cruel sun        no one to change your mind
Dm   Bbsus2      Gm              Csus2 Dm   Bbsus2           Gm     Csus2
Cruel sun        no one to change your mind

        Gm                                  Csus2
And the song goes along those       lines
   Gm                               Csus2
I dare you to wear that smile
Gm           Csus2                  Dm     Bbsus2       Gm        Csus2
Flower child     your eyes are      mine
         Dm     Bbsus2   Gm          Csus2
Eyes are mine

Dm          Bbsus2    Gm    Csus2      Dm         Bbsus2    Gm   Csus2
     Foolish child          when you let the sun shine
            Dm     Bbsus2   Gm         Csus2        Dm      Bbsus2   Gm   Csus2
     Foolish child          when you let the sun shine
     Dm            Bbsus2      Gm           Csus2        Dm        Bbsus2   Gm      Csus2
     Foolish child                when you let the sun shine
            Dm     Bbsus2   Gm            Csus2        Dmx
     Foolish child             when you let the sun shine




                                                                                            187
Jean Leloup - Décadence

    E     G     A     B     x     Em    Bm   F#m    C7    Gx   Am7    B7
e|--0-----3-----5-----2-----x-----0-----2-----2-----0-----3-----0-----2--|
B|--0-----3-----5-----4-----x-----0-----3-----2-----1-----0-----1-----4--|
G|--1-----4-----6-----4-----x-----0-----4-----2-----3-----0-----0-----2--|
D|--2-----5-----7-----4-----x-----2-----4-----4-----2-----0-----2-----4--|
A|--2-----5-----7-----2-----x-----2-----2-----4-----3-----2-----0-----2--|
E|--0-----3-----5-----------x-----0-----------2-----------3--------------|

Fill 1
   1 2 3 4    1 2 3 4
e|-2-5-8-11-|-7-5-3-2-|
B|-1-4-7-10-|-7-5-3-2-|
G|-2-5-8-11-|-8-6-4-3-|
D|-1-4-7-10-|-9-7-5-4-|
A|----------|-9-7-5-4-|
E|----------|-7-5-3-2-|

Suffle beat

Intro: E      G     A   G     E        G     A    G

E                 G      A                G
C'est la décadence, la décade où on danse
           E           G            A          G
Les décapés du caporal, les décatis du capital
E                 G            A            G
C'est la décadence, je sais ce que j'avance
             E      G  A         G
On marche à pétrole et à essence

B       A               E                G             A
Liberté pour les paranoïaques, tous les schizomaniques
          G           E          G             A         G
Tous les échecs et mat, tous les macs à pilate, tous les psychopates
E                   G                A           G
En l'absence de démérol, je n'avais pas d'alcool
                E         G        A   G
Je n'avais même pas de succès damné instantané

B       x                Em
Liberté pour les toucans blancs

Bm              F#m                 Bm
C'est d'une indécence incroyable je pense
                     F#m                      C7                            Em
Tous mes voisins qui pleurent suffoqués puis tombent en proie au grand malheur
               C7                      Fill 1
et puis en fin meurent d'une crise de coeur à l'unanimité

E                 G           A             G
C'est une évidence que nous allons le faire
        E         G         A               G
Entre paranoïaques on va si bien s'entendre
E              G         A             G              B
Tu me feras mal je te le rendrais bien


(on joue Em       Gx    Am7       B7       pendant tous le reste

                                                                                 188
"Dur de t'aimer" dit la mère à sa fille qui vient de la larguer
Pour un drogué un aventurier à Montpellier qui a fait la zone à Barcelone
Une épidural à l'anormal une lobotomie à l'anarchie un manque de pudeur
Un mal de coeur de jeune drogué qui a perdu sa fille
qui dégueule à pleine gueule sur la société

E       G       A        G      E <-----Finale
                    "Dur de t'aimer"




                                                                            189
Jean Leloup - Edgar

    Bm   D    A    E    Ex   E7#9   B7   G
e|--7----5----5----7----0-----0----------3--|
B|--7----7----5----9----0-----8-----7----3--|
G|--7----7----6----9----1-----7-----8----4--|
D|--9----7----7----9----2-----6-----7----5--|
A|--9----5----7----7----2-----7-----x----5--|
E|--7---------5---------0-----0-----7----3--|


Intro:
   1 - + - 2 - + - 3 - + - 4 - + -   1 - + - 2 - + - 3 - + - 4 - + -
e|---------------------------------|---------------------------------|
B|---------------------------------|---------------------------------|
G|---------4---x-4-x-x-4-------4---|---------4---x-4-x-x-4-----------|
D|---------4---x-4-x-x-4-------4---|---------4---x-4-x-x-4-----------|
A|-0h2-2---2---x-2-x-x-2---2-2-2---|-0h2-2---2---x-2-x-x-2-------0h2-|
E|---------------------------------|-------------------------0h2-----|


   1 - + - 2 - + - 3 - + - 4 - + -   1 - + - 2 - + - 3 - + - 4 - + -
e|---------------------------------|---------------------------------|
B|---------------------------------|---------------------------------|
G|---------4---x-4-x-x-4---4-4-4-4-|---------4---x-4-x-x-4-----------|
D|---------4---x-4-x-x-4---4-4-4-4-|---------4---x-4-x-x-4-----------|
A|-2---2---2---x-2-x-x-2---2-2-2-2-|-0h2-2---2---x-2-x-x-2-------0h2-|
E|---------------------------------|-------------------------0h2-----|


Bm              D              A          E             Bm
   Edgar était un vrai saoulon il écrivait toute la journée
              D              A            E                 Bm
il n'écrivait pas de chansons mais des contes où l'assassin
            D                A          E                           Ex
l'emportait toujours haut la main    la victime était homme de bien

(tu-du-du-du...)
Bm    D    A     E   Bm    D     A    E

Bm               D           A              E                Bm
    Le soir Edgar de la folie la plus atroce se sentait pris
             D                   A            E            Bm      D       A       E
malgré les honneurs et les prix de l'alcool était avili.
Bm                 D         A                E          Bm
   Courant d'une ruelle à l'autre son paletot se déchirait
               D               A                E             Bm       D       A       E
dans la boue il se rassasiait, dans la vermine il se vautrait

Rythme approximatif du refrain:
   Bm              D                 A               E
   1 - + - 2 - + - 3 - + - 4 - + -   1 - + - 2 - + - 3 - + - 4 - + -
e|-7---7---x---x-x-5---5---x---x-x-|-5---5---x---x-x-5-5-x-5-x---x-x-|
B|-7---7---x---x-x-7---7---x---x-x-|-5---5---x---x-x-7-7-x-7-x-5-x-x-|
G|-7---7---x---x-x-7---7---x---x-x-|-6---6---x---x-x-7-7-x-7-x-5-x-x-|
D|-9---9---x---x-x-7---7---x---x-x-|-7---7---x---x-x-7-7-x-7-x-5-x-x-|
A|-9---9---x---x-x-5---5---x---x-x-|-7---7---x---x-x-5-5-x-5-x---x-x-|
E|-7---7---x---x-x---------x---x-x-|-5---5---x---x-x-----x---x---x-x-|



                                                                                           190
Refrain:
Bm              D                   A             E               Bm       D       A   E
 À boire à boire pour maître Edgar, À boire à boire pour le génie

Couplet:
Bm              D                 A                E              Bm
   Prenez garde au fou qui sommeille au fond d'un manoir décrépit
              D                A            E               Bm    D    A       E
jouant de ses mains anguleuses une valse de Chopin affreuse


(rythme approximatif de la section suivante):
   1 + 2 + 3 + 4 +
e|-----------------|
B|-----8-------8---|
G|-----7-------7---|
D|-----6-------6---|
A|-----7-------7---|
E|-0-0-----0-0-----|

E7#9                           B7                                  E7#9
   D'une femme il était amoureux comment la convaincre que le bleu
                            B7                                G
n'est pas la couleur de ses yeux mais bien celle des démons hideux
   A     A G A G
visqueux


Refrain (2 fois)


On répète ce patron là quatre fois
   1 + 2 + 3 + 4 +
e|------------------|
B|------7\------7\--|
G|o-----8\------8\-o|
D|o-----7\------7\-o|
A|------------------|
E|--7-7-7\--7-7-7\--|

(Jouer la même chose que l'intro, mais juste la première moitié):

Voilà longtemps que je n'ai bu jusqu'à la lie mon dernier verre

Bm               D       A                  E             Bm
  On l'a retrouvé un jour qu'il venait d'obtenir la palme
               D           A              E              Bm
d'espoir des auteurs du pays dans le canal il était gris
             D               A       E            Bm
en proie au délirum trémens on emmena le vagabond
           D             A           E               Bm   D              A             E
délirer son génie immense à l'hôpital puis il mourut        puis il mourut


refrain (2 fois)

tu-du-du-du-du... (4 fois)




                                                                                           191
Jean Leloup - I Lost My Baby

     Am     C     E     Dm    G7
e|---0------0-----0-----1-----1---|
B|---1------1-----0-----3-----0---|
G|---2------0-----1-----2-----0---|
D|---2------2-----2-----0-----0---|
A|---0------3-----2-----------2---|
E|----------------0-----------3---|


Intro (et rythme de base):
   Am
   1 + 2 + 3 + 4 +   1 + 2 + 3 + 4 +   1 + 2 + 3 + 4 +   1 + 2 + 3 + 4 +
e|-----0-0---0---0-|-----0-0---0---0-|-----0-0---0---0-|-----0-0---0---0-|
B|-----1-1---0---1-|-----1-1---0---1-|-----1-1---0---1-|-----1-1---0---1-|
G|-----2-2---2---2-|-----2-2---2---2-|-----2-2---2---2-|-----2-2---2---2-|
D|-----2-2---2---2-|-----2-2---2---2-|-----2-2---2---2-|-----2-2---2---2-|
A|-0---------------|-0---------------|-0---------------|-0---------------|
E|-----------------|-----------------|-----------------|-----------------|

   C
   1 + 2 + 3 + 4 +   1 + 2 + 3 + 4 +   1 + 2 + 3 + 4 +   1 + 2 + 3 + 4 +
e|-----0-0-------0-|-----0-0---0---0-|-----0-0---0---0-|-----0-0---0---0-|
B|-----1-1---0---1-|-----1-1---0---1-|-----1-1---0---1-|-----1-1---0---1-|
G|-----0-0---0---0-|-----0-0---0---0-|-----0-0---0---0-|-----0-0---0---0-|
D|-----2-2---2---2-|-----2-2---2---2-|-----2-2---2---2-|-----2-2---2---2-|
A|-3---------------|-3---------------|-3---------------|-3---------------|
E|-----------------|-----------------|-----------------|-----------------|

   Am
   1 + 2 + 3 + 4 +   1 + 2 + 3 + 4 +   1 + 2 + 3 + 4 +   1 + 2 + 3 + 4 +
e|-----0-0---0---0-|-----0-0---0---0-|-----0-0---0---0-|-----0-0---0---0-|
B|-----1-1---0---1-|-----1-1---0---1-|-----1-1---0---1-|-----1-1---0---1-|
G|-----2-2---2---2-|-----2-2---2---2-|-----2-2---2---2-|-----2-2---2---2-|
D|-----2-2---2---2-|-----2-2---2---2-|-----2-2---2---2-|-----2-2---2---2-|
A|-0---------------|-0---------------|-0---------------|-0---------------|
E|-----------------|-----------------|-----------------|-----------------|

   C
   1 + 2 + 3 + 4 +   1 + 2 + 3 + 4 +   1 + 2 + 3 + 4 +   1 + 2 + 3 + 4 +
e|-----0-0---0---0-|-----0-0---0---0-|-----0-0---0---0-|-0---------------|
B|-----1-1---0---1-|-----1-1---0---1-|-----1-1---0---1-|-1---------------|
G|-----0-0---0---0-|-----0-0---0---0-|-----0-0---0---0-|-0---------------|
D|-----2-2---2---2-|-----2-2---2---2-|-----2-2---2---2-|-2---------------|
A|-3---------------|-3---------------|-3---------------|-3---------------|
E|-----------------|-----------------|-----------------|-----------------|

Refrain (2x):
          Am
I lost my baby
          E
I lost my darling
          Dm
I lost my friends
          G7
I lost my mind




                                                                             192
                     Am
Pour une fille d'Ottawa
              E
Grandie à Ste-Foy
              Dm
D'un père militaire
                             G7
Et d'une belle fille qui fut sa mère
                     Am
Qui écoutait du country
                        E
Entre deux caisses de bière
                  Dm
Et partait le samedi
                          G7
Pour un lac de Hawkesbury

Rejoindre la grand-mère
                   Am
And all the family
                   E
And all the family


   1 + 2 + 3 + 4 +
e|-----------------|
B|-----------------|
G|-----------------|
D|-----------------|
A|-------------0-2-|
E|-----------3-----|

C         Dm               E
 Ah je ne peux vivre sans toi
         Dm              C
Et je ne peux vivre avec toi
             Dm                   E
Mais tu peux très bien vivre sans moi

Je suis foutu dans les deux cas


Refrain

               Am
Coup de fil de Jami
               E
Qui un jour tomba
                      Dm
Pour une fille d'Ottawa
                   G7
Grandie je ne sais pas
                    Am
D'un père pilote de l'air
                         E
Et d'une mère je ne sais quoi
             -silence-
Tous deux aimaient le cinéma




                                        193
C              Dm            E
 Nous sommes habitants de la Terre
           Dm              C
Il y a des milliers de frontières
           Dm              E
Quelqu'un existe dans l'univers

Pour quelqu'un d'autre et c'est la guerre


Refrain

                     Am
Pour une fille d'Ottawa
              E
Grandie à Ste-Foy
                  Dm
Et qui un jour tomba
                      G7
Pour un chanteur populaire
                                 Am
Grandi en Algérie assez fucké merci
                        E                     -silence-
Et qui lui dit adieu je repars faire ma vie

               Am
À Hawkesbury
               C
À Hawkesbury
               Am
À Hawkesbury
             C
À Hawkesbury
          Am
I lost my baby
          C
I lost my darling
          Am
I lost my baby
          C
I lost my darling
          Am
I lost my friends, I lost my mind
          C
I lost my baby
          Am
I lost my baby

Adieu my baby




                                                          194
Jean Leloup - Isabelle

    Cm   A#   Gm   Fm   Cmx
e|--3----6----3----1-----8---|
B|--4----6----3----1-----8---|
G|--5----7----3----1-----8---|
D|--5----8----5----3-----10--|
A|--3----8----5----3-----10--|
E|-------6----3----1-----8---|


Intro 2X -> Cm (4x) A# (2x) Gm (2x)

Cm
    Elle t'a dit qu'elle serait juste à toi l'après-midi
                                       A#
Au rond-point au carré "La fontaine St-Louis"
                                               Gm
Tu te rends, tu y vas, à l'heure comme à l'habitude
                                                      Cm
Mais elle ne s'y trouve pas, tu es seul fait comme un rat

Ce n'est rien, ce n'est rien, je vais lui téléphoner
                                                   A#
Ce n'est rien, ce n'est rien, elle a seulement oublié
                                            Gm
Mais juste au moment où tu allais vers la cabine
                                      Cm
Tu la vois rigolant avec copains et copines

Cm               Fm Gm         Cm
     C'est pas facile quand Isabelle te laisse tomber
                     Fm Gm          Cm
     Y'a pas de quoi rire quand Isabelle te fait marcher

Cm (4x) A# (2x) Gm (2x)

Cm
   La salope, ah la vache mais pourquoi elle ne dit rien
                                               A#
La salope, ah la vache elle le traite comme un chien
                                                  Gm
Mais ton coeur est trop tendre et tu préfères l'attendre
                                                Cm
Dans le café d'en face comme un espion comme un con

Mais enfin au moment où ton café s'en venait
                                         A#
Tu la vois elle repart assise sur la mobylette
                                            Gm
De ton pote ou enfin, celui que tu t'en doutais
                                            Cm
Tu te dis c'est fini, elle est partie avec lui

Cm               Fm Gm         Cm
     C'est pas facile quand Isabelle te laisse tomber
                     Fm Gm          Cm
     Y'a pas de quoi rire quand Isabelle te fait marcher

Cm (4x)

                                                            195
Tu te rends dans le bar qu'elle préfère le soir venu
                                               A#
Arrivé il est dix heures et c'est vide et incongru
                                                      Gm
Mais enfin d'quoi t'a l'air t'en vois plusieurs qui rigolent
                                                 Cm
Qui se parlent dans ton dos qui se foutent de ta gueule

Où qu'elle est, où qu'elle est, ridicule tu demandes
                                           A#
À la blonde serveuse qui est sa meilleure amie
                                                    Gm
Elle répond qu'elle sait pas, ni le pourquoi ni le comment
                                                 Cm
Avec l'air innocent tu sais très bien qu'elle te ment

Cm               Fm Gm        Cm
    C'est pas facile quand Isabelle te laisse tomber
                      Fm Gm         Cm
    Y'a pas de quoi rire quand Isabelle te fait marcher
           Fm     Gm           Cm
Ma p'tite abeille, je t'aime encore dis moi qu'tu dors
              Fm     Gm          Cm
Ma p'tite merveille dis-moi que l'amour n'est pas mort

Fm              Gm                          Cm
   Isabelle, Isabelle, réponds-moi et parle-moi
                                               Fm
J'ai pas su, pas voulu, enfin j'ai pas fais exprès
                      Gm                            Cm
Mais elle ne dit plus rien maintenant c'est pour de vrai
                                            Fm         Gm
Maintenant à présent, l'Amour est une sale affaire
                       Cm
L'Amour est une sale affaire.
                      Fm       Gm
L'Amour est une sale affaire
                      Cm      A# Cmx
L'Amour est une sale affaire.




                                                               196
Jean Leloup - Je joue de la guitare

Accordé un demi-ton plus bas

   Em          G                     Am
   1 - + - 2 - + - 3 - + - 4 - + -   1 - + - 2 - + - 3 - + - 4 - + -
e|-------3-------------------------|---------------------------------|
B|-------3-------------------------|---------------------------------|
G|-------0-----4-----------4-----5-|-5-----5-----5-----5-----5-----7-|
D|-2---x-2-x-x-5-----------5-x-x-x-|-7-----7-x-x-7-----7-----7-x-x-x-|
A|-2---x---x-x-5-------5---5-x-x---|-7-----7-x-x-7-------7---7-x-x---|
E|-0---x---x-x-3-------3---3-x-x---|-5-----5-x-x-5---5---5---5-x-x---|

   Bm
   1 - + - 2 - + - 3 - + - 4 - + -   ? - + - ? - + - ? -
e|---------------------------------|---------------------|
B|---------------------------------|/8---8-----8-----8---|
G|-7-----7-----7-----7-----7-0-0-x-|/9---7-----7-----7---|
D|-9-----9-x-x-9-----9-9---9-x-x-x-|---------9---7h9-----|
A|-9-----9-x-x-9-------9---9-x-----|-------------------x-|
E|-7-----7-x-x-7-------7---7-x-----|-------------------x-|

   Bm                                Am
   1 - + - 2 - + - 3 - + - 4 - + -   1 - + - 2 - + - 3 - + - 4 - + -
e|-------7-----------7-------------|---------------------------------|
B|-------7-----------7-------------|---------------------------------|
G|-------7-----7-----7-7-7-7-0-0-5-|-5-----5-----5h7-5---5-5-----5---|
D|-------9-x-x-9-----9-9-9-9-x-x-x-|-7-----7-x-x-------7---------5---|
A|-9-------x-x-9-------9-9-9-------|-7-----7-x-x-------------5h7---0-|
E|-7-------x-x-7-------7-7-7-------|-5-----5-x-x---------------------|

   Em
   1 - + - 2 - + - 3 - + - 4 - + -   1 - + - 2 - + - 3 - + - 4 - + -
e|-------3-----3-----------3-------|-------3-----------3-----3-------|
B|-------3-----3-----------3-------|-------3-----------3-----3-------|
G|-------0-----0-------0---0-0-----|-------0-----------0-----0-0-0-4-|
D|-2-----2-x-x-2-------2---2-2-2-2-|-2-----2-x-x-2-----2-2---2-x-x-x-|
A|-2-------x-x-2-------2---2---2-2-|-2-------x-x-2-------2-----------|
E|-0-------x-x-0-------0---2-------|-0-------x-x-0-------0-----------|

   G           Am                    Em
   1 - + - 2 - + - 3 - + - 4 - + -   1 - + - 2 - + - 3 - + - 4 - + -
e|---------------------------------|-------3-------------------------|
B|---------------------------------|-------3-------------------------|
G|-4-----4-----5-----------5-0-0-0-|-0-----0-----0-----------0-0-0-4-|
D|-5---x-5-x-x-7-----------7-x-x-2-|-2-----2-x-x-2-----2-2---2-x-x-x-|
A|-5---x-5-x-x-7-----------7-------|-2-------x-x-2-----2-2---2-------|
E|-3---x-3-x-x-5-------5---5-------|-0-------x-x-0-----0-0---0-------|

   G           Am                    Em
   1 - + - 2 - + - 3 - + - 4 - + -   1 - + - 2 - + - 3 - + - 4 - + -
e|---------------------------------|-------------7-----------x--------|
B|---------------------------------|-------8-----8-----------x--------|
G|-4-----4-----5-----------5-0-0-9-|-9---9-9-x-x-9-----------x--------|
D|-5---x-5-x-x-7-----------7-x-x-9-|-9-----9-x-x-9-----------x-x-x-x--|
A|-5---x-5-x-x-7-----------7-------|-7-----7-x-x-7-----------x-x-x-x--|
E|-3---x-3-x-x-5-------5---5-------|-------------------------x-x-x-x--|




                                                                          197
          G    Am                Em
À quoi je joue? Je joue de la guitare
          G    Am                Em
À quoi je joue? Je joue de la guitare


e|-----0----------------------------|
B|-3-----0--------------------------|
G|-0-------0------------------------|
D|-2------------------------x-x-x-x-|
A|-2------------------------x-x-x-x-|
E|-0------------------------x-x-x-x-|


   Em               G
La solitude parfois est immense
                       Am
Tout plutôt que d'être ce passant
                                          Em
Qui traverse le temps de temps en temps
                G
Alors je pars à la dérive
                          Am
Mon lit est un navire un atelier

Où je vais pour l'éternité

  Bm
Voyageur d'un instant présent
                               Am
Je ne sais pourquoi je suis si triste
                                               Bm
J'aimerais appeler quelqu'un mais qui Dieu
                                                    Am
Je me sens seul viens je viens tout m'isole


          Em   G                 Am
À quoi je joue? Je joue de la guitare
          Em   G                 Am
À quoi je joue? Je joue de la guitare


   Bm                                                      Am
Je sens que j'hallucine et j'ai peur de partir comme un fou vers la mort
                                         Bm       Am
Et j'ai des grands instants de lucidididididididididi

Et j'ai des grands instants de lucidididididididididi
            Em                     G         Am
Et j'ai des grands instants de lucididité
            Em                     G         Am
Et j'ai des grands instants de lucidididité




                                                                           198
         Bm                               Am
Fuck the system   do it do it do it do it yeah
         Bm                               Am
Fuck the system   do it do it do it do it yeah
         Bm                               Am
Fuck the system   do it do it do it do it yeah
         Bm                               Am
Fuck the system   do it do it do it do it yeah

Em     G                    Am
Choisir entre tous les gens qui m'entourent
                               Em          G       Am
Comment faire une telle preuve d'amour
                                        Bm
Fuck the system do it do it do it do it
         Am                             Bm            Am
Fuck the system do it do it do it do it yeah
                                Em           G        Am
Et j'ai des grands instants de lucididididididi
                                Em           G        Am
Et j'ai des grands instants de lucididididididi
            Em                     G           Am
Et j'ai des grands instants de lucididididididi
            Em                     G           Am
Et j'ai des grands instants de lucididididididi
            Bm                                 Am
Et j'ai des grands instants de lucididididididi
            Bm
Et j'ai des grands instants de lucididididididi
                                Bm              Am
Et j'ai des grands instants de lucidididididi
                 Em      G      Am
Je joue de la guitare

Je joue de la guitare


   Em
   1 - + - 2 - + - 3 - + - 4 - + - ? - + - ? -
e|-------------7-------------------------------|
B|-------8-----8----------/8---8-----8-----8---|
G|-9---9-9-x-x-9----------/9---7-----7-----7---|
D|-9-----9-x-x-9-------------------9---7h9-----|
A|-7-----7-x-x-7-----------------------------x-|
E|-------------------------------------------x-|

   Bm                                  Am
   1 - + - 2 - + - 3 - + - 4 - + -     1 - + - 2 - + - 3 - + - 4 - + -
e|-------------7-10------7-----------|-------5-------------------------|
B|-----------------0--10-8-----8-8---|-------5-------------------------|
G|-------7-----------------0-9-7-7---|-------5---0---------5---5-------|
D|-9-----9-x-------------------------|-7-----7-x-----------5---5-------|
A|-9-----9-x-----------------------0-|-7-------x-------5h7-------------|
E|-7-----7-x-------------------------|-5-------x---5h7-------------5-3-|




                                                                           199
   Em          G                     Am
   1 - + - 2 - + - 3 - + - 4 - + -   1 - + - 2 - + - 3 - + - 4 - + -
e|-------3-------------------------|---------------------------------|
B|-------3-------------------------|---------------------------------|
G|-------0-----4-----------4-----5-|-------5---0---------5---5-------|
D|-2-----2-x-x-5-----------5-x-x-x-|-7-----7-x-----------5---5-------|
A|-2-------x-x-5-------5---5-x-x---|-7-----7-x-------5h7-------------|
E|-0-------x-x-3-------3---3-x-x---|-5-----7-x---5h7-------------5-3-|

   Em          G                     Am
   1 - + - 2 - + - 3 - + - 4 - + -   1 - + - 2 - + - 3 - + - 4 - + -
e|-------3-------------------------|---------------------------------|
B|-------3-------------------------|---------------------------------|
G|-------0-----4-----------4-4-4-5-|-5-----5-----5-----------5-0-0-8-|
D|-2-----2-x-x-5-----------5-5-5-7-|-7-----7-x-x-7-----------7-x-x-x-|
A|-2-------x-x-5-------5---5-5-5-7-|-7-----7-x-x-7-------7---7-------|
E|-0-------x-x-3-------3---3-3-3-5-|-5-----5-x-x-5-------5---5-------|


C
     Faisait pas beau dehors and she wasn't a whore
B
     Rêvait de pardonner cherchait à discuter
Cm                                                                  Bm
     peut-être qu'elle avait le sida peut-être qu'elle le disait pas

                                                 Em
Comme la neige a neigé, ma vitre est un jardin givré
                    G                               Am
Ah tout l'ennui que j'ai que j'ai que j'ai que j'ai
                        Em                    G                              Am
Pleurez oiseaux de février tous les étangs gisent gelés, gelés, gelés, gelés

                                  Bm   Am              Bm       Am
Fuck the system do it do it do it yeah     yeaaaaaaaah yeeah
Em     G                    Am
Choisir entre tous les gens qui m'entourent
                               Em       G     Am
Comment faire une telle preuve d'amour
          Em    G Am
A quoi je joue,      je joue de la guitare
          Em    G Am
A quoi je joue,      je joue de la guitare

   Em                      G                               Am
Je sens que j'hallucine et j'ai peur de partir comme un fou vers la mort
                                       Bm     Am
Et j'ai des grands instants de lucididité
            Bm                      C
Et j'ai des grands instants de luci
                               D
Et j'ai des grands instants de

Et j'ai des grands instants de lucididité




                                                                                  200
Bm                         C                 Bm                           C
   Il y a, il y a les sirènes qui   chantent, qui chantent chantent les marées
Am                      D                    Am                           D
   Il y a, il y a les sirènes qui   chantent, qui chantent chantent les noyés
           Bm C            Bm C
Vers les iles, vers les iles
Am
   C'est le temps d'embrasser les   fleurs de cimetière
Bm
   C'est le temps de mourir
Am
   À la guerre comme à la guerre
Bm
   C'est le temps de partir
Am
   Faisait pas beau dehors
Bm
   Fuck the system do it do it do   it do it
Am
   À la guerre comme à la guerre

Em                       G           Am
   Dans son silence un   poisson lune philosophait au fond des brumes
Em                  G         Am
   Mais jamais Némo ne   saura les noires pensées du poisson chat
Em                       G           Am
   Dans son silence un   poisson lune philosophait au fond des brumes
Em                  G         Am
   Mais jamais Némo ne   saura les noires pensées du poisson chat

Bm                                  Am
   Les sous-marins se font la guerre sous les tropiques du Cancer
Bm                           Am
   Mais jamais Némo ne saura les noires pensées du poisson-chat, encore!
Bm                           Am
   Mais jamais Némo ne saura les noires pensées du poisson-chat
Bm                        Am
heeeeeeeeeeeeeeeeeeeeeeeeeey!




                                                                                 201
Em        G                   Am
Choisir entre tous les gens qui m'entourent, jamais!
Em G                                      Am
   Comment faire une telle preuve d'amour, d'amour, d'amour, d'amour, d'amour
            Em        G                  Am
Fuck the system do it do it do it do it yeah, je joue de la guitare
            Em        G                  Am
Fuck the system do it do it do it do it yeah
    Em                            G                            Am
Je sens que j'hallucine et j'ai peur de partir comme un fou vers la mort
                                         Em       G    Am
Et j'ai des grands instants de lucidididididi
               Em                   G            Am
Et j'ai des grands instants de lucidididididi          ah come on!
     Em                     G         Am
Des grands instants de lucididité           et j'ai peur de l'héro, et j'ai peur de l'héro
       Em                G                                      Am
J'ai peur de partir, et j'ai des grands instants de lucididididididi
Em        G                   Am
Choisir entre tous les gens qui m'entourent
                                 Em                 G                    Am
Comment faire une telle preuve d'amour, d'amour, d'amour, d'amour, d'amour, d'amour
                  Em          G                       Am
Fuck the system do it do it do it do it do it yeah


   Fuck the system                         je joue de la guitare
e|-7--------------7--6--5--------------------------------------------0--
B|-7--------------7--6--5-------------------------------------------0---
G|-7--------------7--6--5------------------------------------------0----
D|-9--------------9--8--7-----------------------------------------2-----
A|-9--------------9--8--7----------------------------------------2------
E|-7--------------7--6--5---------------------------------------0-------




                                                                                             202
Jean Leloup - Johnny Go

Intro:
    1 - + - 2 - + - 3 - + - 4 - + -   1 - + - 2 - + - 3 - + - 4 - + -
e|----------------------------------|----------------------------------|
B|----------------------------------|----------------------------------|
G|o---0---0-------------------------|---------------------------------o|
D|o/5---5---5---3--h5---3-----------|---0---0-------------------------o|
A|--------------------------5---3---|/5---5---5---3--h5---3------------|
E|----------------------------------|-------------------------6---3----|


       Gm                                                  Dm
Et les pièces sont vides à présent et je suis libre de mon temps

Faire un café fumer un joint me semble intelligent
   Gm
La chose à faire en ce cas-là n'est pas prescrite par la loi
   Dm
Ni par les Tables de la Foi
            Gm                                                   Dm
Tu n'es pas ici tes murs sont disparus tes nus tes photos et tes meubles rococo
                                       Gm
J'arrive d'un endroit où j'ai senti l'absurde d'ici-bas
                                          Dm
dans un building où on voulait me trouer le dos


                   Gm          Cm    Dm
Take the money and go   Johnny go
                   Gm          Cm    Dm
Take the money and go   Johnny go
                   Gm          Cm    Dm
Take the money and go   Johnny go
                   Gm   (riff de l'intro
Take the money and go   Johnny go


   Gm
Je mets la clé dans la serrure le bruit me semble un bruit de mort
   Dm
Je sens une oppression qui vient du vide autour de moi
   Gm
La nuit est noire et les immeubles me font penser à un immense
Dm
fantôme une menace qui me guette un froid dans l'enclos
Gm
Je me sens prisonnier d'un immense jeu de drapeaux
        Dm
je suis dans l'embarras aidez-moi


                   Gm          Cm    Dm
Take the money and go   Johnny go
                   Gm          Cm    Dm
Take the money and go   Johnny go
                   Gm          Cm    Dm
Take the money and go   Johnny go
                   Gm          Cm    Dm
Take the money and go   Johnny go

                                                                                  203
Gm



Et j'ai vu le grand monde le petit et le gros
Survivre est une loi pour les rois de la riff
Attaque organisée des fuckés sur les ondes
Attaque organisée, 3 minutes 20 secondes
Je connais les pushers les plus drôles en ville
Et je connais aussi monsieur cigares Davidoff
Qui fume des barreaux de chaise à 60$ la pof
Qui fume des barreaux de chaise à 60$ la pof


Bout de rap avec les accords du refrain...


Riff de l'intro


                   Gm          Cm     Dm
Take the money and go   Johnny go
                   Gm          Cm                           Dm
Take the money and go   Johnny go   je take the money et je go
                   Gm          Cm                           Dm
Take the money and go   Johnny go   je take the money et je go
                   Gm          Cm                           Dm
Take the money and go   Johnny go   je take the money et je go


       Gm                               Cm                        Dm
Et les murs sont vides de ta douleur de tes couleurs et de ta parano

Tu me manqueras mais moi je repars survivre ailleurs
   Gm                      Cm                         Dm
Adieu je t'oublierai au détour de la vie car il faut tout d'abord survivre au ghetto
               Gm                        Cm
Je reprends ma douleur pour moi seul je sais que tu ne seras plus là
Dm                                            Gm     Cm                       Dm
Pour me soutenir au combat alors il fera trop froid, alors il fera trop froid

C'est pourquoi

Riff de l'intro
Je take the money et je go Johnny go
(And I like it)
Je take the money et je go




                                                                                       204
Jean Leloup - L'antiquaire

Riff 1:
   Am
   1    + 2  + 3   + 4   +   1   + 2   + 3   + 4   +
e|-------5---5-------5---5-|-------5---5-------5---5-|
B|-------5---5-------5---5-|-------5---5-------5---5-|
G|-------5---5-------5---5-|-------5---5-------5---5-|
D|-------------------------|-------------------------|
A|-------------------------|-------------------------|
E|-5-----------0-----------|-5-----------0-----------|

   Am
   1   + 2   + 3   + 4   +   1   + 2   + 3   + 4   +
e|-------5---5-------5---5-|-------------------------|
B|-------5---5-------5---5-|-------------------------|
G|-------5---5-------5---5-|-----------------5-4-----|
D|-------------------------|-------------------------|
A|-------------------------|-------------------------|
E|-5-----------0-----------|-7h8---8-----7---8-7-----|


Riff 2:
    Am
    1   + 2   + 3   + 4   +   1   + 2   + 3   + 4   +
e|--------5---5-------5---5-|-------5---5-------5---5-|
B|--------5---5-------5---5-|-------5---5-------5---5-|
G|o-------5---5-------5---5-|-------5---5-------5---5-|
D|o-------------------------|-------------------------|
A|--------------------------|-------------------------|
E|--5-----------0-----------|-5-----------0-----------|

   Am
   1   + 2   + 3   + 4   +   1   + 2   + 3   + 4   +
e|-------5---5-------5---5-|-------0---0-------0---0--|
B|-------5---5-------5---5-|-------1---1-------1---1--|
G|-------5---5-------5---5-|-------2---2-------2---2-o|
D|-------------------------|-------------------------o|
A|-------------------------|-0------------------------|
E|-5-----------0-----------|-------------0------------|


Riff 3a:
   Dm
   1   + 2   + 3   + 4   +   1       +   2       +   3       +   4       +
e|---0-----0-----0-------0-|---------0---------------------------------------|
B|-------------------------|-------------------------------------------------|
G|-----7-----7-----7-------|-------------------------------------------------|
D|-------7----------7/9----|9/12-------12/14---------------------------------|
A|-5-----------5-----------|-------------------------------------------------|
E|-------------------------|---------------------12--10----------8-----------|

   Am
   1   + 2   + 3   + 4   +   1   + 2   + 3   + 4   +
e|-------5---5-------5---5-|-------5---5-------5---5-|
B|-------5---5-------5---5-|-------5---5-------5---5-|
G|-------5---5-------5---5-|-------5---5-------5---5-|
D|-------------------------|-------------------------|
A|-------------------------|-------------------------|
E|-5-----------0-----------|-5-----------0-----------|

                                                                                 205
   Dm                        E7
   1   + 2   + 3   + 4   +   1   + 2   + 3   + 4   +
e|-------------------------|-------------------------|
B|-------------5-----------|-------5-----------------|
G|-------7---------7-----7-|-------7-----------------|
D|-----7-----7-------7-----|-----6-6-----------------|
A|-5-----------------------|-7-----7-----5---3-------|
E|-------------------------|-------------------5---3-|


Riff 3b:
   Dm
   1   + 2   + 3   + 4   +   1       +   2       +   3       +   4       +
e|---0-----0-----0-----0---|---------0---------------------------------------|
B|-------------------------|-------------------------------------------------|
G|-----7-----7-------------|-------------------------------------------------|
D|-------7----7/9----9/12--|12/14--------------------------------------------|
A|-5-----------------------|-------------------------------------------------|
E|-------------------------|---------------------12--10----------8-----------|

   Am
   1   + 2   + 3   + 4   +   1   + 2   + 3   + 4   +
e|-------5---5-------5---5-|-------5---5-------5---5-|
B|-------5---5-------5---5-|-------5---5-------5---5-|
G|-------5---5-------5---5-|-------5---5-------5---5-|
D|-------------------------|-------------------------|
A|-------------------------|-------------------------|
E|-5-----------0-----------|-5-----------0-----------|

   Dm                        E7
   1   + 2   + 3   + 4   +   1   + 2   + 3   + 4   +
e|-------------------------|-------------------------|
B|-------------5-----------|-------5-----------------|
G|-------7---------7-----7-|-------7-----------------|
D|-----7-----7-------7-----|-----6-6-----------------|
A|-5-----------------------|-7-----7-----5---3-------|
E|-------------------------|-------------------5---3-|


Riff 3c:
   Dm
   1   + 2   + 3   + 4   +   1       +   2       +   3       +   4       +
e|---0-----0-----0-----0---|---------0---------------------------------------|
B|-------------------------|-------------------------------------------------|
G|-----7-----7-------------|-------------------------------------------------|
D|-------7----7/9----9/12--|12/14--------------------------------------------|
A|-5-----------------------|-------------------------------------------------|
E|-------------------------|---------------------12--10----------8-----------|

    Am
    1   + 2   + 3   + 4   +   1   + 2   + 3   + 4   +
e|--------5---5-------5---5-|-------5---5-------5---5-|
B|--------5---5-------5---5-|-------5---5-------5---5-|
G|o-------5---5-------5---5-|-------5---5-------5---5-|
D|o-------------------------|-------------------------|
A|--------------------------|-------------------------|
E|--5-----------0-----------|-5-----------0-----------|




                                                                                 206
   Dm                        E7
   1   + 2   + 3   + 4   +   1   + 2   + 3   + 4   +
e|-------------------------|-------------------------|
B|-------------5-----------|-------------5-----------|
G|-------7---------7-----7-|-------7---------7-----7-|
D|-----7-----7-------7-----|-----6-----6-------6-----|
A|-5-----------------------|-7-----------------------|
E|-------------------------|-------------------------|

    Am
    1   + 2   + 3   + 4   +   1   + 2   + 3   + 4   +
e|--------5---5-------5---5-|-------5---5-------5---5-|
B|--------5---5-------5---5-|-------5---5-------5---5-|
G|o-------5---5-------5---5-|-------5---5-------5---5-|
D|o-------------------------|-------------------------|
A|--------------------------|-------------------------|
E|--5-----------0-----------|-5-----------0-----------|

   Dm                        E7
   1   + 2   + 3   + 4   +   1   + 2   + 3   + 4   +
e|-------------------------|-------------------------|
B|-------------5-----------|-------5-----------------|
G|-------7---------7-----7-|-------7-----------------|
D|-----7-----7-------7-----|-----6-6-----------------|
A|-5-----------------------|-7-----7-----------------|
E|-------------------------|-------------------------|

   Am
e|-------------------------------15----
B|------------------------------13-----
G|-----------5----4------------14------
D|-5----7------------------------------
A|-------------------------------------
E|-------------------------------------



Riff 4:
  3   + 4   +    1   + 2   + 3   + 4   +
e-------------|---------------------------|
B-------------|---------------------------|
G-------------|o-------------------------o|
D-------------|o-------------------------o|
A-------------|--7-7-7-7-7-7-7-7-7-7-7-7--|
E-0-----3-----|--5-5-5-5-5-5-5-5-5-5-5-5--|



Début de la chanson:

Intro:

  4   +   1   + 2   + 3   + 4   +   1   + 2   + 3   + 4   +   1
e-------|-------------------------|-------------------------|----
B-------|-5-5-5-5-5-5-5-5-5-5-5-5-|-5-5-5-3-3-3-1-1-1-0-0-0-|-1--
G-------|-5-5-5-5-5-5-5-5-5-5-5-5-|-5-5-5-4-4-4-2-2-2-1-1-1-|-2--
D---5-7-|-------------------------|-------------------------|----
A-7-----|-------------------------|-------------------------|----
E-------|-------------------------|-------------------------|----


                                                                    207
Riff 1


Riff 2:
Je suis dans la ville et je me promène
Tout est bien tranquille, la nuit est d'ébène
Dans une vitrine, blanc comme l'héroïne
Un bouddha d'ivoire, cinq mille dollars

Riff 3a:
Chez l'antiquaire
C'est bien trop cher
Je veux pas qu'on me prenne pour un con
Même si je dois aller en prison

Riff 2:
Y'a personne à gauche, y'a personne à droite
Personne peut me voir, je commence à y croire
La ruelle arrière est abandonnée
Je pense à ma mère bien vite oubliée

Riff 3b:
Chez l'antiquaire
Dans la poussière
Je veux pas qu'on me prenne pour un con
Même si je dois aller en prison

Riff 2:
Y'a pas de lumière et y'a pas d'auto
A part le camion qui est tout bousillé
Je vais à la porte, je sonne et resonne
La maison est morte, ça va y'a personne

Riff 3b:
Chez l'antiquaire
Putain de sa mère
Je veux pas qu'on me prenne pour un con
Même si je dois aller en prison

   Am
   1   + 2   + 3   + 4   +
e|-------5---5-------5---5-|
B|-------5---5-------5---5-|
G|-------5---5-------5---5-|
D|-------------------------|
A|-------------------------|
E|-5-----------0-----------|

   Am
   1   + 2   + 3   + 4   +   1   + 2   + 3   + 4   +
e|-5-----------------------|-------------------------|
B|-5-----5-5-5-5-5-5-5-5-5-|-5-5-5-5-5-5-5-5-5-------|
G|-5-----5-5-5-5-5-5-5-5-5-|-5-5-5-5-5-5-5-5-5---4/5-|
D|-------------------------|-------------------7-----|
A|-------------------------|-------------------------|
E|-5-----------------------|-------------------------|




                                                         208
   1   + 2   + 3   + 4   +   1   + 2   + 3   + 4   +
e|-------7---7-5-----------|-------------------------|
B|------x--------5---------|-------------------------|
G|-4----x----------5-------|-------------------------|
D|-----x-------------7-----|-----------7-------------|
A|---------------------7---|-------7-8---8---7/5-----|
E|-----------------------8-|-5-7-8-------------------|

   E7
   1   + 2   + 3   + 4   +   1   + 2   + 3   + 4   +
e|-------------------------|-----------10b12-------10|
B|-------------------------|-------------------------|
G|-------------------------|------/9-----------------|
D|-------------------------|-------------------------|
A|/7-----\-----------------|-------------------------|
E|-----------------------0-|-------------------------|


   1   + 2   + 3   + 4   +   1   + 2   + 3   + 4   +
e|-----------10------------|-----10------------------|
B|----------------13-12--10|-9-----9-----9---------9-|
G|-------------------------|-------------------------|
D|-------------------------|-------------------------|
A|-------------------------|-------------------------|
E|-------------------------|-------------------------|

   Am
   1   + 2   + 3   + 4   +   1   + 2   + 3   + 4   +
e|-------------------------|-------------------------|
B|-10----------------------|-------------------------|
G|-------9-----7-----5-----|-----------5-----5-------|
D|-------------------------|-7---7-6/7---------------|
A|-------------------------|-------------------------|
E|-------------------------|-------------------------|

   Dm                            E7                        Am
   1   + 2   + 3     + 4     +   1   + 2   + 3   + 4   +   1
e|-------10--------------------|-------------------------|----
B|----10---10------------------|-------------------------|----
G|---10------10----------------|-------------------------|----
D|--12---------12-11-10--------|-------------------------|----
A|---------------------12-11/7-|-------7-----5---3-------|----
E|-----------------------------|-------------------5---3-|-5--


Riff 2:
Faut que je retourne chez moi prendre mon sac à dos (pause)
Y'en aura peut-être plus, y'en aura peut-être trop
Riff 4:
J'y vais, je casse tout, la vitrine arrière
Le Bouddha d'ivoire, cinq mille dollars

Riff 3c:
Chez l'antiquaire
Suis-je un vandale?
Je veux pas qu'on me prenne pour un con
Même si je dois aller en prison
Je veux pas être pauvre, non
Je veux pas aller en prison


                                                                 209
Jean Leloup - La Chambre

      Am    E     D     C     G     F
e|----0-----0-----2-----0-----3-----1----|
B|----1-----0-----3-----1-----0-----1----|
G|----2-----1-----2-----0-----0-----2----|
D|----2-----2-----0-----2-----0-----3----|
A|----0-----2-----------3-----2-----3----|
E|----------0-----------------3-----1----|

Intro:
   Am                                E
   1   +   2   +   3   +   4   +     1   +   2   +   3   +   4   +
e|---------------------------------|---------------------------------|
B|---------------------------------|---------------------------------|
G|---------------------------------|---------------------------------|
D|-2-----2-----2-------------------|---------------------------------|
A|-3p2---3p2---3p2-----------------|---------------------------------|
E|---------------------------------|-3p0---3p0---3p0-3^4-------------|

3x:
    Am                                E
    1   +   2   +   3   +   4   +     1   +   2   +   3   +   4   +
e|--0-----0-----0---0-----0-----0---|----------------------------------|
B|--1-----1-----1---1-----1-----1---|-3-----3-----3---3-----3-----3----|
G|o---------------------------------|-4-----4-----4---4-----4-----4---o|
D|o---------------------------------|---------------------------------o|
A|--3p2---3p2---3-------------------|----------------------------------|
E|----------------------------------|-3p0---3p0---3--------------------|

(joue juste en fin de mesure)
Am
Dans ma chambre où il fait froid
E
Un mètre cinquante par trois
Am
cinq dollars la nuit je crois...
E
cinq dollars la nuit je crois...

Am
Je possède un lit étroit
E
Et une fenêtre en bois
Am                               E
Dans ma chambre où il fait froid

(le rythme s'accélère)
Am
La fenêtre donne sur un mur
E
En haut ce n'est pas le ciel
Am
En bas ce n'est pas la cour
E                       Am     D               E
Au loin ce n'est pas la mer... ce n'est pas la mer




                                                                           210
Am              C              G
  Devrais-je partir ou bien rester
F                 E              Am
Devrais-je enfin tout laisser tomber
              C              G
Devrais-je partir ou bien rester
F                 E              Am
Devrais-je enfin tout laisser tomber...


Premier rythme de l'intro

Am
Je regarde les coins de murs
E
Et j'écoute les murmures
Am
C'est le pays des losers
E
Le sale pays des sans-coeur
Am
Les bruits commencent la nuit
E
Les bruits des désirs enfouis
Am
Les pas lourds des alcoolos
E
Et ceux discrets des junkies
Am
Les bizarres toxicos
D            E
Les ratés et les zéros
                   Am
Les ratés et les zéros

                             G
Devrais-je partir ou bien rester
F                E               Am
Devrais-je enfin tout laisser tomber

   Am                                E
   1   +   2   +   3   +   4   +     1   +   2   +   3   +   4   +
e|---------------------------------|---------------------------------|
B|---------------------------------|---------------------------------|
G|---------------------------------|---------------------------------|
D|-2-----2-----2---2-----2-----2---|---------------------------------|
A|-3p2---3p2---3p2-3p2---3p2---3p2-|---------------------------------|
E|---------------------------------|-3p0---3p0---3p0-3p2---3p2---3p2-|


Am
Sur ma porte un crucifix
E
Où se meurt un Jésus-Christ
Am
Dans ma chambre moi je prie
E
Emmène-moi loin d'ici

Am    E    Am   E

                                                                         211
Am
Et je rêve parfois la nuit
E
Que je me réveille ailleurs
Am
J'ouvre la porte un matin
E
C'est un immense jardin
Am
Une femme vient en rêve
E
Me visiter chaque soir
Am
Ne me laisse pas tomber
E
Me dit-elle sans pitié

Am
Qui est elle je ne sais
E
Celle qui calmera mes cris
Am
Celle qui bercera mes nuits
E                       Am
Chaque fois que je tomberai
D
Chaque fois que je tomberai
                        E
Chaque fois que je tomberai
                        Am
Chaque fois que je tomberai

                             G
Devrais-je partir ou bien rester
F                E               Am
Devrais-je enfin tout laisser tomber
Am                      E
Should I go or should I stay...




                                       212
Jean Leloup - Le Monde Est À Pleurer

       Gm    Cm    F     D7    G     C
e|-----3-----3-----1-----5-----3-----3-----|
B|-----3-----4-----1-----7-----3-----5-----|
G|-----3-----5-----2-----5-----4-----5-----|
D|-----5-----5-----3-----7-----5-----5-----|
A|-----5-----3-----3-----5-----5-----3-----|
E|-----3-----------1-----------3-----------|

Riff 1:
                  Gm                                Cm
   + - 4 - + -    1 - + - 2 - + - 3 - + - 4 - + -   1 - + - 2 - + - 3 - + - 4 - + -
e|-1-----1-1---|--3-------------------1-----1-1---|-3-------------------1-----1-1----|
B|-1-----1-1---|--3-------------------1-----1-1---|-4-------------------1-----1-1----|
G|-------------|o---------------------------------|---------------------------------o|
D|-------------|o---------------------------------|---------------------------------o|
A|-------------|----------------------------------|----------------------------------|
E|-------------|----------------------------------|----------------------------------|

Riff 2:
        Gm                                Cm
        1 - + - 2 - + - 3 - + - 4 - + -   1 - + - 2 - + - 3 - + - 4 - + -
e|-1-|----3-3-3-3-----1---3-3-3-3-----1-|---3-3-3-3-----3---3-3-3-3-----1--|
B|-1-|----3-3-3-3-----1---3-3-3-3-----1-|---4-4-4-4-----4---4-4-4-4-----1--|
G|---|o---------------------------------|---------------------------------o|
D|---|o---------------------------------|---------------------------------o|
A|---|----------------------------------|----------------------------------|
E|---|----------------------------------|----------------------------------|

Riff 3:
        Gm                                Cm
        1 - + - 2 - + - 3 - + - 4 - + -   1 - + - 2 - + - 3 - + - 4 - + -
e|-3-|----3-3-3-3-----3---3-3-3-3-----3-|---3-3-3-3-----3---3-3-3-3-----3--|
B|-3-|----3-3-3-3-----3---3-3-3-3-----4-|---4-4-4-4-----4---4-4-4-4-----3--|
G|-3-|o---3-3-3-3-----3---3-3-3-3-----5-|---5-5-5-5-----5---5-5-5-5-----3-o|
D|-5-|o---5-5-5-5-----5---5-5-5-5-----5-|---5-5-5-5-----5---5-5-5-5-----5-o|
A|-5-|----5-5-5-5-----5---5-5-5-5-----3-|---3-3-3-3-----3---3-3-3-3-----5--|
E|-3-|----3-3-3-3-----3---3-3-3-5-------|-------------------------------3--|

Riff du refrain (et rythme)
    F
    1 - + - 2 - + - 3 - + - 4 - + -
e|--1-1-1-1-1---x-1-x-1-x-1-1-1-1-x--|
B|--1-1-1-1-1---x-1-x-1-x-1-1-1-1-x--|
G|o-2-2-2-2-2---x-2-x-2-x-2-2-2-2-x-o|
D|o-3-3-3-3-3---x-3-x-3-x-3-3-3-3-x-o|
A|--3-3-3-3-3---x-3-x-3-x-3-3-3-3-x--|
E|--1-1-1-1-1---x-1-x-1-x-1-1-1-1-x--|



Intro: Riff 1 --> 2x

Gm            Cm
Hey hey hey
Gm            Cm
Hey hey hey



                                                                                         213
Riff 2 --> 2x


Riff 3 pendant les couplets:

      Gm
Aujourd'hui rassemblés Dieu le père et Bouddha
         Cm
Et Krishna et Allah dans un même gynécée
          Gm
Tous ont gros sur le coeur C'est pourquoi le meeting
            Cm
C'est pourquoi le meeting
     Gm
En effet en ce jour deux mille ans après Christ
             Cm
Force leur est d'avouer leur échec
      Gm
Les humains sont méchants et la terre est cruelle
      Cm
Et la terre est cruelle

     Gm
Je désire tout de suite   prendre le crachoir
            Cm
Dit Bouddha le gros tas   dans un sursaut sans gloire
         Gm
Pour ma part ce ne sont   ni les guerres ni les famines
        Cm
Qui me prennent la tête
           Gm                                           Cm
Non ce serait plutôt la   conception ratée à la base de l'humain

La sélection naturelle par exemple
Gm
Le martyre le pire qu'on puisse endurer
              Cm
N'est-il pas avant tout la laideur chronique

La laideur chronique
         Gm
Quand je pense à cette fille que j'ai vu a Macao
          Cm
Tellement moche et sans talent à chaque fois qu'elle aimait
         Gm                                         Cm
Son amour se serrait dedans elle comme un ulcère d'estomac

Qui lui tenaillait l'intérieur
     Gm                                             Cm
Son amour se serrait dedans elle comme un ulcère d'estomac
                         Gm
Qui lui tenaillait l'intérieur
        Cm
L'intérieur


      F
Allez hop Un peu de sincérité
Cm                     Riff 2 --> 2x
le monde est à pleurer

                                                                   214
          Gm
Ce n'est rien dit Allah toujours contradictoire
      Cm
Je connais des obèses incapables de voir
         Gm
un frigidaire sans frémir d'angoisse
                       Cm
Sans frémir d'angoisse
   Gm
Honteux et défaitistes, ils traînent la nuit
          Cm
dans les salles à manger et le jour rase les murs
Gm                                   Cm
L'ennemi des miroirs, l'ennemi des mirroirs

(jouer les 4 prochaines lignes beaucoup moins fort)
      Gm
Votre vue est sommaire rétorque Dieu le père
           Cm
Savez-vous l'existence de ces familles de banlieue
            Gm
Qui passent leur jeunesse à gagner
                     Cm
Un salaire à peine suffisant pour payer cette maison horrible
Gm                                    Cm
Et cette pelouse affreuse et après 20 ans de labeur fou
                                   Gm
Les enfants les quittent et plus jamais ne les aiment
               Cm
Et plus jamais ne les aiment


      F
Allez hop Un peu de sincérité
Cm                     Gm <-- tenir l'accord
le monde est à pleurer

D7                                 G
Mais je vois pire encore de scander Manitou toujours en retard et pété à mort
D7                                        G
Je vois le cortège des artistes ratés qui cherchent le tube à longueur de journées
      G                          F                    C
Et se cassent la tête pour cette pauvre fille qui chantait des ballades
F                   G                       F           C       F
À cette pauvre fille pas trop belle qui chantait des ballades


Riff 2

Gm            Cm
Hey hey hey
Gm            Cm
Hey hey hey




                                                                                     215
Riff 3
      Gm
Le meeting va bon train, ça défoule tout va bien
           Cm
Les dieux pleurent tout leur soûl sur l'acné juvénile
     Gm                                          Cm
Les oreilles décollées le parc Lafontaine la retraite à 60 ans
                         Gm
L'amour décevant, les toilettes publiques et les rages de dents
        Cm                                    Gm            Cm
Les toilettes publiques et les rages de dents
      Gm                                       Cm
Enfin Dieu et Bouddha et Krishna et Allah épuisés de l'effort
                              Gm
Tombent cois pessimistes et regardent leurs orteils et
                                  Cm
Regardent leurs pieds et regardent leurs pieds

Gm
Mais Dieu le père toujours jovial se ressaisit
         Cm
J'ai ici messieurs dans mon sac un petit cordial
            Gm
dont vous me direz des nouvelles
                                     Cm
Et le voilà qui distribue les verres
      Gm                                         Cm
Bouddha s'illumine et en a lui aussi et le saké coule à flots
                       Gm                         Cm
Manitou a du pot et Shiva du haschich Allah se retire
      Gm                                              Cm
Et on vit dans le ciel, Dieu le père les Bouddha Manitou et Krishna
                               Gm
Bras dessus bras dessous ivres morts et joyeux chanter à
               Cm
Tue-tête au dessus des nuages

      F
Allez hop Un peu de sincérité
Cm                     Gm <-- final
le monde est à pleurer




                                                                      216
Jean Leloup - Les Fourmis

Riff 1: (Les notes entre parenthèses sont facultatives.
         Il faut les jouer à-peu-près deux temps par mesure)
   F#m                Bm7                 E                 F#m
    1 + 2 + 3 + 4 +    1 + 2 + 3 + 4 +    1 + 2 + 3 + 4 +    1 + 2 + 3 + 4 +
e|-------------------|------------------|------------------|------------------|
B|---(2)-(2)-(2)-(2)-|--(0)-(0)-(0)-(0)-|--(0)-(0)-(0)-(0)-|--(2)-(2)-(2)-(2)-|
G|o---2---2---2---2--|---2---2---2---2--|---1---1---1---1--|---2---2---2---2-o|
D|o------------------|------------------|------------------|-----------------o|
A|-------------------|-2---2---2---2----|------------------|------------------|
E|--2---2---2---2----|------------------|-0---0---0---0----|-2---2---2---2----|


Riff 2:
  F#5              A5                D5              E5
   1    +  2   +   3   +   4   +     1   +   2   +   3   +   4   +
e|---------------------------------|---------------------------------|
B|---------------------------------|---------------------------------|
G|---------------------------------|---------------------------------|
D|---------------------------------|-7---7---7---7-7-9---9---9---9-9-|
A|-4---4---4---4-4-7---7---7---7-7-|-5---5---5---5-5-7---7---7---7-7-|
E|-2---2---2---2-2-5---5---5---5-5-|---------------------------------|


Riff 3:
  F#m               Bm                F#m               Bm       |--3--|
   1 + 2 + 3 + 4 +   1 + 2 + 3 + 4 +   1 + 2 + 3 + 4 +   1 + 2 + 3 + 4 +
e|-----2-2-----2---|-----2-2-----2---|-----2-2-----2---|-----2-2-2--2--2-|
B|-----2-2-----2---|-----3-3-----3---|-----2-2-----2---|-----3-3-3--3--3-|
G|-----2-2-----2---|-----4-4-----4---|-----2-2-----2---|-----4-4-4--4--4-|
D|-----------------|-----------------|-----------------|-----------------|
A|-----------------|-----------------|-----------------|-----------------|
E|-----------------|-----------------|-----------------|-----------------|


Intro: Riff 1 (4x), ensuite les oh-oh-oh commence (riff 1   6x)

Riff 1 (4x) au cours des paroles
F#m            Bm7         E            F#m
Dans le monde des fourmis, il n'y a que des fourmis
F#m             Bm7        E              F#m
Des autoroutes de fourmis, des ascenseurs de fourmis
F#m        Bm7         E            F#m
Des océans de fourmis, des galaxies de fourmis
F#m             Bm7        E            F#m
Des échangeurs de fourmis, des myriades de fourmis

Oh oh oh , oh oh oh. (4x) Riff 1 (4x)

F#m            Bm7          E                F#m
Dans les rêves des fourmis, les humains sont très petits
F#m          Bm7          E               F#m
Dans la tête des fourmis, dans les jambes des fourmis
F#m           Bm7         E                F#m
Des batailles de fourmis, des catastrophes de fourmis
F#m               Bm7         E              F#m
Et quand meurent les fourmis, elles s'en vont, au paradis



                                                                                  217
Riff 1 (6x) (Dans la dernière fois, avant de changer de riff, ne pas jouer
la dernière mesure de F#m)
Hum di di dum, hen hen hen hen hen hen


Riff 2 (4x)
oh, oh, oh, oh, oh, oh, oh, oh, oh


Riff 3 (10x)
F#m              Bm
oh, oh, oh, oh, oh, oh, oh, oh, oh
F#m              Bm
oh, oh, oh, oh, oh, oh, oh, oh, oh
F#m              Bm
oh, oh, oh, oh, oh, oh, oh, oh, oh
F#m              Bm
oh, oh, oh, oh, oh, oh, oh, oh, oh
F#m Bm               F#m        Bm F#m            Bm F#m           Bm
        les fourmis, les fourmis,      les fourmis,    les fourmis
F#m           Bm             F#m            Bm
les fourmis extraterrestres, les fourmis
F#m               Bm        F#m            Bm
les fourmis intersidérales, les fourmis
F#m               Bm          F#m             Bm
les fourmis intergalactiques, les fourmis
F#m              Bm         F#m            Bm
les fourmis interspatiales, les fourmis
F#m               Bm         F#m            Bm
les fourmillions de fourmis, les fourmis
F#m               Bm         F#m            Bm
les fourmillions de fourmis, les fourmis


Riff 1 (6x)
Vous en présence des fourmis intersidérales


Riff 1 (4x)    (Dans la dernière fois, avant de changer de Riff, ne pas jouer
la dernière    mesure de F#m)
F#m                      Bm7         E               F#m
Parfois les    fourmis en ont marre, les fourmis ont le cafard
F#m                Bm7        E             F#m
    Fourmile   Ajar ah ah ah, fourmile Ajar ah ah ah
F#m                Bm7        E             F#m
    Fourmile   Ajar ah ah ah, fourmile Ajar ah ah ah
F#m                Bm7        E             F#m
    Fourmile   Ajar ah ah ah, fourmile Ajar ah ah ah

Riff 2 (4x)
oh, oh, oh, oh, oh, oh, oh, oh, oh (une coupe de fois)




                                                                                218
Outro: Un espèce de jam sur F#m. Le beat change, ça devient en triolet.
J'aime bien jouer avec ces trois triades:
                                              1 + + 2 + + 3 + + 4 + +
e|-2----9-----5|   Le beat ressemble à ça. |--2-2-2-2-2-2-2-2-2-2---1/--|
B|-2-et-10-et-7|   On peut sauter le 1er   |--2-2-2-2-2-2-2-2-2-2---1/--|
G|-2----11----6|   "+" de chaque temps.    |o-2-2-2-2-2-2-2-2-2-2---1/-o|
D|-------------|                           |o--------------------------o|
A|-------------|                           |----------------------------|
E|-------------|                           |----------------------------|

Les   punitions de fourmis
Les   prisons pleines de fourmis
Les   fourmis à la fourmilière
Les   prisons pleines de fourmis
Les   fourmis à la fourmilière

   1 + + 2 + + 3 + + 4 + +   1 + + 2 + + 3 + + 4 + +
e|-2---2-2---2-2---2-2-1-2-|-4-----2-----------------|-2--
B|-2---2-2---2-2---2-2-----|-------2-----2-----------|-2--
G|-2---2-2---2-2---2-2-----|-------2-----2-----2-----|-2--
D|-------------------------|-------------4-----4-----|-4--
A|-------------------------|-------------------4-----|-4--
E|-------------------------|-------------------------|-2--




                                                                            219
Jean Leloup - Les papillons

      Bm Bm/C# Bm/D     F#   Emx Em/F# Em/G     G     Em    A   Asus4 Bmsus2
e|----2-----2-----------2-----7-----7-----------3-----0-----0-----0-----2----
B|----3-----3-----3-----2-----8-----8-----8-----0-----0-----2-----3-----2----
G|----4-----2-----4-----3-----9-----7-----9-----0-----0-----2-----2-----4----
D|----4-----x-----4-----4-----9-----x-----9-----0-----2-----2-----2-----4----
A|----2-----4-----5-----4-----7-----9-----10----2-----2-----0-----0-----2----
E|----------------------2-----0-----------------3-----0----------------------


J'commence, one, two, one two three


Bm         Bm/C#   Bm/D    F#
Bm         Bm/C#   Bm/D    F#
Bm         Bm/C#   Bm/D    F#
Bm         Bm/C#   Bm/D    F#


(même riff)
  Bm...                     Bm...
I love you, you know me too, I love you
Bm...                              Bm...
Maybe, maybe God wants me with you, I love you

Emx        Em/F#   Em/G    Em/F#
Emx        Em/F#   Em/G    Em/F#
Bm         Bm/C#   Bm/D    F#
Bm         Bm/C#   Bm/D    F#


        G     Em F#               Bm
Les papillons de nuit volent sans bruit

                                                                 A Asus4 A    A   Asus4   A
J'habite au fond d'un coquillage, la conque, le grand pavillon
G                                 Em                            F# Bm Bmsus2
   Au fond d'un mystérieux passage où vont mourir les papillons de nuit
Bm                                                                  A
   Quand vient le temps des migrations ils envahissent par millions
G                             Em                             F#    Bm
   Mon logis de multicolores, taches carrées de vert et d'or
                            G                 Em                             F#
Et au milieu mon amour dort, dort, dort, dort, mon amour qui jamais ne mord


Bm            G    Em Bm               G     Em           F#      Bm     x
     Les papillons de nuit volent sans bruit, volent sans bruit


Bm                                                                 A
  Violamment se briseront les flots sur la coquille de mon château
G                            Em                             F# Bm
  Qui traversa mille tempêtes sans que jamais rien ne l'arrête
                                                                 A
Tous mes amours furent éphémères sauf celui-ci qu'un jour je vis
G                                Em                            F# Bm
  Au fond d'un mystérieux cratère où vont mourir les papillons de nuit


                                                                                              220
     G    Em Bm               G     Em           F#
Papillons de nuit volent sans bruit, volent sans bruit


  Bm...                     Bm...
I love you, you know me too
Bm...                              Bm...
Maybe, maybe God wants me with you, I love you

Emx     Em/F#   Em/G    Em/F#
Emx     Em/F#   Em/G    Em/F#
Bm...




                                                         221
Jean Leloup - Les Rats

Exemple de rythme quand ça brasse:
   E7                                   Am
    1 - + - 2 - + - 3 - + - 4 - + -     1 - + - 2 - + - 3 - + - 4 - + -
e|-----------------------------------|------5-----5-5-5-----5-----5-5-5--|
B|------5-----5-5-5-----5-----5-5-5--|------5-----5-5-5-----5-----5-5-5--|
G|o-----7-----7-7-7-----7-----7-7-7-o|o-----5-----5-5-5-----5-----5-5-5-o|
D|o-----6-----6-6-6-----6-----6-6-6-o|o-----7-----7-7-7-----7-----7-7-7-o|
A|--7---------------7----------------|----------7---------------7--------|
E|----------7---------------7--------|--5---------------5----------------|



Intro (assez lent) (ne pas laisser sonner les accords. Staccato)
                                           E7
  1 + 2 + 3 + 4     +   1 + 2 + 3 + 4 +    1 + 2 + 3 + 4 +   1 + 2 + 3 + 4 +
e|----------5-4h5p4---|------------------|-----------------|-----------------|
B|------------------6-|-5---4-5-/6-5-4-5-|---5---5---5---5-|---5---5-6-x-5-x-|
G|--------------------|---5--------------|---7---7---7---7-|---7-------------|
D|--------------------|------------------|---6---6---6---6-|---6-------------|
A|--------------------|------------------|-7-------7-------|-7-----7-8-x-7-x-|
E|--------------------|------------------|-----7-------7---|-----7-----------|

   Am                                  E7
   1 + 2 + 3 + 4 +   1 + 2 + 3 + 4 +   1 + 2 + 3 + 4 +   1 + 2 + 3 + 4 +
e|---5---5---5---5-|-----------5---5-|-----------------|-------------------|
B|---5---5---5---5-|---5-4-5---5---5-|---5---5---5---5-|---5-4-5-6-7-8--9--|
G|---5---5---5---5-|-----------5---5-|---7---7---7---7-|-------------------|
D|---7---7---7---7-|-----------7---7-|---6---6---6---6-|-------------------|
A|-----7-------7---|---7-6-7-----7---|-7-------7-------|-7-7-6-7-8-9-10-11-|
E|-5-------5-------|-5-------5-------|-----7-------7---|-------------------|

   Am              Dm                Am
   1   +   2   +   3   +   4   +     1 + 2 + 3 + 4 +
e|-----5---5---5-5-----5---5-5-5---|-5-------------x-|
B|-10--5---5---5-5-----6---6-6-6---|-5-------------x-|
G|-----5---5---5-5-----7---7-7-7---|-5-------------x-|
D|-----7---7---7-7-----7---7-7-7---|-7-------------x-|
A|-12--7---7---7-7-5---5---5-5-5---|-7---------5-7-x-|
E|-----5---5---5-5-----------------|-5-0-4-5-7-----x-|
  ^________pas staccato___________^

   Dm                                  Am
   1 + 2 + 3 + 4 +   1 + 2 + 3 + 4 +   1 + 2 + 3 + 4 +   1 + 2 + 3 + 4 +
e|---5---5---5---5-|---8-8-8-7-7-5-5-|---5---5---5---5-|---5---5---5---5-|
B|---6---6---6---6-|---6-6-6-6-6-6-6-|---5---5---5---5-|---5---5---5---5-|
G|---7---7---7---7-|---5-5-5-5-5-5-5-|---5---5---5---5-|---5---5---5---5-|
D|---7---7---7---7-|-----------------|---7---7---7---7-|---7---7---7---7-|
A|-5-------5-------|-5-------5-------|---7-7-7---7-7-7-|---7-7-7---7-7-7-|
E|-----5-------5---|-----5-------5---|-5-------5-------|-5-------5-------|
                    ^__pas staccato_^




                                                                                 222
   F7                E7
   1 + 2 + 3 + 4 +   1 + 2 + 3 on tient
e|-----------------|--------------------------|
B|---6---6---6---6-|---5---5-5----------------|
G|---8---8---8---8-|---7---7-7----------------|
D|---7---7---7---7-|---6---6-6----------------|
A|-8-------8-------|-7-------7----------------|
E|-----8-------8---|-----7--------------------|
  ^__________presque 2x plus lent____________^


(Beaucoup plus rapidement):
                                           E7
  1 + 2 + 3 + 4     +   1 + 2 + 3 + 4 +    1 + 2 + 3 + 4 +   1 + 2 + 3 + 4 +
e|----------5-4h5p4---|------------------|-----------------|-----------------|
B|------------------6-|-5---4-5-/6-5-4-5-|---5---5---5---5-|---5---5---5---5-|
G|--------------------|---5--------------|---7---7---7---7-|---7---7---7---7-|
D|--------------------|------------------|---6---6---6---6-|---6---6---6---6-|
A|--------------------|------------------|-7-------7-------|-7-------7-------|
E|--------------------|------------------|-----7-------7---|-----7-------7---|

  Am                                  E7
   1 + 2 + 3 + 4 +   1 + 2 + 3 + 4 +   1 + 2 + 3 + 4 +   1 + 2 + 3 + 4 +
e|---5---5---5---5-|---5---5---5---5-|-----------------|-----------------|
B|---5---5---5---5-|---5---5---5---5-|---5---5---5---5-|---5---5---5---5-|
G|---5---5---5---5-|---5---5---5---5-|---7---7---7---7-|---7---7---7---7-|
D|---7---7---7---7-|---7---7---7---7-|---6---6---6---6-|---6---6---6---6-|
A|-----7-------7---|-----7-------7---|-7-------7-------|-7-------7-------|
E|-5-------5-------|-5-------5-------|-----7-------7---|-----7-------7---|

  Am               Dm                Am
   1   +   2   +   3   +   4   +        Ils étaient plus d'un m..
e|-5---5---5-5-5-5-5---5---5-5-5-5-|-5--------------------------|
B|-5---5---5-5-5-5-6---6---6-6-6-6-|-5--------------------------|
G|-5---5---5-5-5-5-7---7---7-7-7-7-|-5--------------------------|
D|-7---7---7-7-7-7-7---7---7-7-7-7-|-7--------------------------|
A|-7---7---7-7-7-7-5---5---5-5-5-5-|-7--------------------------|
E|-5---5---5-5-5-5-----------------|-5--------------------------|

                           E7
Ils étaient plus d'un milliard à se partager   la caisse
                 Am
De denrées alimentaires
                     E7
Ils en bouffèrent le bois et se grugèrent le   foie
                        Am
Ils étaient bien dégueulasses, des fourrures   de Hyènes
                              E7
Et des dents longues et malsaines était tout   leur apparat
                        Am        Dm           Am
Nombreux sont les Scélérats

                       E7
Nombreux sont les Scélérats
                       Am
Nombreux sont les gros tas, beaucoup trop les exploiteurs
                    E7
Et les ramoneurs en trop, comme ils sont de gros mangeurs
                        Am     Dm     Am
De la faim ils ont très peur

                                                                                 223
                    E7
Ils ont même élu un roi
                        Am
Pour le faire péter de joie
                    E7
Ils ont même élu un roi
                        Am    Dm     Am
Pour le faire péter de joie


                              E7
Ohh mais pendant qu'ils se battaient pour aller toujours plus haut
                       Am
Moi qui venait de plus bas, découragé de l'odeur
                   E7
Et incapable d'ambitions et de mordre un pauvre raton
                    Am
Je tombais en fin de compte
        Dm             Am
Dans le fin fond de la caisse...


(Plus lentement, en accélérant)
                   E7
Et la caisse accélera
                   Am
Et la caisse accélera

etc... une coupe de fois pour finalement finir par:

   Am      Dm        Am
   1 + 2 + 3 + 4 +   1
e|-5-------5-------|-5------------------------------------------|
B|-5-------6-------|-5------------------------------------------|
G|-5-------7-------|-5------------------------------------------|
D|-7-------7-------|-7------------------------------------------|
A|-7-------5-------|-7------------------------------------------|
E|-5---------------|-5------------------------------------------|
                     ^__tremolo picking la-dessus




                                                                     224
Jean Leloup - Les remords du commandant

    Ebdim Gbdim Adim    B7
e|----2-----5-----8-----7----
B|----1-----4-----7-----7----
G|----2-----5-----8-----8----
D|----1-----4-----7-----7----
A|----------------------9----
E|----------------------7----



Intro:
    pa da pa pa pa... Am          Bm      Em      <= 4x
   + - 3 - + - 4 - + -    1 - + - 2 - + - 3 - + - 4 - + -    1
e--------------7-------|------5-------7-------7---x-x-7----|-7--
B------8---10------8---|------5-------7-------8---x-x-8----|-8--
G----9-----------------|o-----5-------7-------9---x-x-9---o|-9--
D----------------------|o-----7-------9-------9---x-x-9---o|-9--
A----------------------|------7-------9---7---7---x-7-7----|-7--
E----------------------|--5---5---7---7--------------------|----


           Am   Bm Em
Pa da   pa pa   pa pa
   Em      Am    Bm       Em
Pa da   pa pa pa pa da pa
   Em      Am    Bm       Em
Pa da   pa pa pa pa da pa
   Em      Am   Bm Em     Em
Pa da   pa pa   pa pa


                       Am       Bm
   Au chevet de son lit un jour l'homme célèbre
Em         Em               Am  Bm
   Aux portes des ténèbres appelle ses amis
Em         Em             Am        Bm
   Sur le point de mourir quelques hontes surviennent
Em       Em           Am         Bm
   Je ne puis repartir avant que ne convienne
Em      Em               Am         Bm           Em   Em    Em
   Un péché qui me gruge vous en serez les juges


                            Am           Bm
   D'aussi loin que me souvienne j'adorais avant tout
Em                 Em             Am        Bm
   Qu'on m'encense et me loue, qu'on m'encense et me loue
Em       Em              Am        Bm
   Et je suivis toujours ce penchant naturel
Em              Em           Am       Bm
   Sans chercher plus avant et que la vie est belle
Em        Em          Am       Bm
   Inutile de feindre cette désinvolture




                                                                   225
Em              Em               Am          Bm
   Qu'on s'efforcait de peindre n'était que devanture
Em        Em         Am         Bm
   L'acharnement seul l'entêtement d'une meule
Em        Em                 Am       Bm
   Me fit toujours atteindre mes victoires sans geindre
Em        Em              Am       Bm
   Me fit parmi les hommes m'élever jusqu'a gloire
Em        Em              Amx Bmx        Emx
   Me fit parmi les pommes devenir cette poire


           Am       Bm         Em
Pa da   pa pa   pam pa da pa
   Em      Am      Bm       Em
Pa da   pa pa   pa pa da pa
   Em      Am   Bm       Em
Pa da   pa pa   pa da pa
   Em      Am      Bm       Emx
Pa da   pa pa   pa pa da pa


                       Am       Bm
   Est-ce cette âpreté, cette folie des hauteurs
Em          Em          Am         Bm
   Qui fit de moi ce fou quand j'y songe je pleure
Em             Em          Am      Bm
   Comme paon dans sa robe refusant les honneurs
Em       Em               Amx    Bmx
   Je me faisais si probe ah......


                 Em      Em          Em   Em
L'or me lève le coeur
Em         Em            Em         Em
   L'or me lève le coeur


Em           Em            Am    Bm
   Derrière moi se rangeait le petit le grand peuple
Em       Em           Am            Bm
   Et je le faisais rêver de l'impossible ailleurs
Em          Em            Am     Bm
   Eaux parfaitement pures et paysages vierges
Em       Em          Am       Bm             Em    Em
   Des paradis perdus en Sibérie les cierges


                     Ebdim
Et ces comptes rendus où nous appraissions
               Gbdim                  Adim
Traqués ou héroiques, Balthazar et Loïc

Dans un ravin profond furent laissés pour morts

Lâcheté et remords m'attendent-ils aux cieux

Pour me rappeler le crime me tirer les cheveux

 B7
Non, de répondre une voix...
                                                          226
                         Am     Bm
   Au sommet des plus hautes montagnes ou au creux
Em          Em              Am       Bm
   Des plus profondes gorges nous voulions voir les cieux
Em       Em           Am       Bm
   Et le public disait quel courage sans bornes
Em      Em                  Am        Bm
   Ils affrontent les mornes carapaces du laid

Em       Em                   Am       Bm
   Les déserts les plus froids et les plaines arides
Em       Em            Am           Bm
   Traversés mille fois autant qu'étaient de rides
Em        Em        Am           Bm
   Sur le visage coi du vieillard centenaire
Em       Em               Am        Bm       Emx
   Rencontré sur la terre de Baffin rappelle-toi

                            Am Bm
   Chaque fois que j'entends la pluie qui tombe
Em             Em             Am       Bm
   Je pense que le ciel pleure ceux que j'ai fait pleurer
Em             Em          Am         Bm
   J'espère que mes erreurs n'ont pas fait trop de mal
Em          Em                 Am
   Et j'aimerais que mon coeur soit intersidéral

Em           Em            Am             Bm
   J'espère que mes erreurs n'ont pas fait trop de mal
Em        Em                Am       Bm
   Et j'espère que mon coeur est intersidéral
Em              Em            Am              Bm
   J'aimerais que mes erreurs n'aient pas fait trop de mal
Em              Em          Am       Bm
   Et j'espère que mon coeur est intersidéral

Em         Em           Em            Em
   Sur les routes de cailloux tiens ?
Em            Em           Em         Em      Emx Emx   Em
   Les routes de cailloux, Balthazar, Loïc, putain,     putain


           Am    Bm        Em
Pa da   pa pa pa pa da pa
   Em      Am    Bm       Em
Pa da   pa pa pa pa da pa
   Em      Am    Bm        Em
Pa da   pa pa pa pa da pa
   Em      Riff final
Pa da   pa pa pa pa da

Riff final:
   Am       Bm     Em                Em
   1 - + - 2 - + - 3 - + - 4 - + -   1
e|-5-------7-------------7---7-7---|-7--
B|-5-------7-------7h8---8---7-7---|-8--
G|-5-------7-------7h9---9-----7---|-9--
D|-7-------9-------7h9---9-----7---|-9--
A|-7-------9-------7-----7---------|-7--
E|-5-------7-----------------------|----

                                                                 227
Jean Leloup - Nathalie

Accords de la toune
   E D F#m Dm A G#m A7 Dx Ex
e|-0--2--2---5---5---4---5---5---7-|
B|-0--3--2---6---5---4---8---7---9-|
G|-1--2--2---7---6---4---6---7---9-|
D|-2--0--4---7---7---6---5---7---9-|
A|-2-----4---5---7---6---7---5---7-|
E|-0-----2-------5---4---5---------|

Riff principal
   F#m             D           E                D
   1   +   2   +   3   +   4   +    1   +   2   +   3   +   4   +
e|---------9-------10--10------12-|-----12------10-(10)-10--10-----|
B|---------10------10--10------12-|-----12------10-(10)-10--10-----|
G|---------11------11--11------13-|-----13------11-(11)-11--11-----|
D|---------11------12--12------14-|-----14------12-(12)-12--12-----|
A|-9---------------12--12------14-|-----14------12-(12)-12--12-----|
E|-----------------10--10------12-|-----12------10-(10)-10--10-----|


Si on ne peut pas monter aussi haut sur notre guitare:
   F#m             D           E                D
   1   +   2   +   3   +   4   +    1   +   2   +   3   +   4   +
e|---------2-------2---2-------0--|-----0-------2--(2)--2---2------|
B|---------2-------3---3-------0--|-----0-------3--(3)--3---3------|
G|---------2-------2---2-------1--|-----1-------2--(2)--2---2------|
D|---------4-------0---0-------2--|-----2-------0---0---0---0------|
A|---------4-------------------2--|-----2--------------------------|
E|-2---------------------------0--|-----0--------------------------|


Intro: riff principal (4x)

Riff principal (6x)
Nathalie
Dans le nez s'en est trop mis
Et moi je m'en suis épris
Par un bel après-midi
Il y avait Hendrix Jimi
Mais j'n'avais pas un radis
Alors naquirent les ennuis
De l'homme qui perd sa jolie

                    E
Alors j'ai bu du calva
                    D
De la bière et du coca
                         F#m
Dans les bras d'une paula
                    D
Qui fumait son chocolat
                       E
et faisait du zen-doo-dah
                    D
ainsi va la vie qui va

Riff principal (4x)
ainsi va la vie qui va, ah

                                                                       228
Marianne, elle est héroïnomane
elle roule en vieille bécane
mais là, elle a eu la panne
elle l'a eue dans la figure
qu'est-ce tu veux la vie est dure

                 E
attachée a son copain
                          D
comme à un petit bout de pain
                  F#m
et à son litre de vin
                  D
volé chez le dépanneur
                          E
elle veut aller dans les îles
                            D
elle veut fuire la grande ville
                    Dm
mais elle y arrivera pas
                    A    G#m F#m
ainsi va la vie qui va, ah, ah
                    Dm
ainsi va la vie qui va
                    A    G#m F#m
ainsi va la vie qui va, ah, ah
                    Dm
ainsi va la vie qui va
                    A            A7
ainsi va la vie qui va, ah, ah, ah


Riff principal

Pin-pon
Les ambulances viennent et vont
Pin-pon
Et on entend les klaxons
Les ambulances viennent et vont
Plus qu'on est de fous, et plus cons

(plus lent)
     E
catherine
D                      F#m
   s'étant foulé la cheville
Dx                    Ex
    a dû cesser le ballet
                         Dx
et elle traîne dans les bars
                          Dm
elle s'ennuie, elle en a marre

ils en sont tous amoureux même moi j'suis con pour deux
petit roment de mépit chhhhhhhhhhh




                                                          229
e|----10-12-|
B|---10-----|
G|--10------|
D|-12-------|
A|----------|
E|----------|

                            A G#m F#m
quand je la vois mon coeur bat
                      Dm
mais impossible de le dire
                                A   G#m   F#m
je crois qu'elle se mettrait à rire
                        Dm
elle me dirait "comment ça?
                           Riff principale jusqu'à la fin
j'aurais jamais cru que toi"
ainsi va la vie qui va, ah
ainsi va la vie qui va, ah
tout ça pour dire qu'aujourd'hui
le soleil et puis la pluie
se sont mis de la partie
mouillant les yeux de Sylvie
les cheveux de Nathalie
et les yeux de Marianne
les cheveux de Marianne
comme je les aime mes amies
qu'est ce qu'on a bu cette fois-là
j'en ai eu une gueule de bois
pendant au moins deux, trois mois
bon d'accord deux jours ou trois
trois p'tits chats et puis s'en vont
ainsi va la vie qui va, ah
ainsi va la vie qui va, ah
ainsi va la vie qui va, ah
ainsi va la vie qui stop (On ne joue plus le riff principal)
non!
1,2
1,2,3 (on recommence le riff principale)
ainsi va la vie qui va, ah
ainsi va la vie qui va, ah
ainsi va la vie qui va, ah
ainsi va la vie qui stop




                                                               230
Jean Leloup - Petite fleur

Style très libre, ce n'est pas parce qu'il y a la même distance entre
les notes qu'elles ont la même durée


e|------------------------11-10---------10---------------------------
B|---11----10-------10-13-------11-----11-----------10-11------10----
G|--12----11-----11----------------12-12---------12-------12--11-----
D|-13----12-----------------------------------12-------------12------
A|-------------------------------------------------------------------
E|-------------------------------------------------------------------


e|-------------------------------------------------------------------
B|-----------11-10-------10---------11---------10--------------------
G|-----------------12---11---------12---------11---------------------
D|-14-13-14------------12---------13---------12----------------------
A|-------------------------------------------------------------------
E|-------------------------------------------------------------------


e|-----3--------------------------------3------------------5---------
B|-----3--------------------------------3------------------5---------
G|-----3-------------------5-8-7\-------3------------------6---------
D|-----5-----5---4-----4-7--------------5----0-5-7-/8-5-7--7---------
A|-----5-----6---5----------------------5------------------7---------
E|-3---3----------------------------3---3------------------5---------


e|-------------------------------------------------3-----------------
B|-------------------------------------------------3-----------------
G|--------------------5----6--5----------5-8-7-----3-----------------
D|-------8-7-6-5\4----4----5--4------4-7-----------5-----------------
A|-7-6-7-----------5-------6--5--------------------5-----------------
E|---------------------------------------------3---3-----------------


e|--------------------5--------8----10-------------------------------
B|--------------------5--------8----10-------------------------------
G|--------------------6--------8----10-------------------------------
D|----5-7-/8-5-7------7--------8----10--------------------------8----
A|-/5-----------------7--------x----x------------3/5-8-5-8-9-10------
E|----------------5---5--------8----10-------3-6-------------------3-



Début des paroles:

e|---------------------------------------3---------------------5-----
B|---------------------------------------3---------------------5-----
G|-----------------------------5-8-7-----3---------------------6-----
D|-5---4------4--5--4------4-7-----------5---------5-7-8-5-----7-----
A|-6---5------5--6--5--------------------5-------5-------------7-----
E|-----------------------------------3---3-----------------5---5-----




                                                                        231
e|---------------------------------------------------------------8---
B|---------------------------------------------6--------6--------8---
G|-----------------5---6---5----------5-8-7----7-----7-----------8---
D|---4-5-7--4------4---5---4------4-7----------7-----------------8---
A|-7-----------5-------6---5-------------------------------------x---
E|------------------------------------------6--------------7-----8---


e|-----------------3-------------------------------------------------
B|-6-------6---4---3----------------------------------8--------------
G|-7-------7---5---3-------5-7-5------8p7-8---8---8---7--------------
D|-7-------7---5---5-----8-------8----8---8---8---8---8--------------
A|-x-------x-------5----------------------10--10--10-----------------
E|-x-------6-------3---------------8---------------------------------


e|-----------------3---------------------------5-----5---6---5-------
B|-----------------3---------------------------5-----5---6---5-------
G|-----5-----------3---------------------------6-----6---7---6-------
D|-7-8---8-7-8-----5--------5-7-8----7-5-7-----7-----7---8---7-------
A|-----------------5------5--------------------7-----7---8---7-------
E|-------------3---3-----------------------5---5---------------------


e|---------------3------------------------5------8---10-------3------
B|---------------3------------------------5------8---10-------3------
G|-----5-8-7-----3-----------------5------6------8---10-------3------
D|-4-7-----------5-------0-5-7-8----------7------8---10-------5------
A|---------------5------------------------7------x---x--------5------
E|-----------3---3--------------------5---5------8---10-------3------


e|---------------------------------------------------4---------------
B|-----3-6------6---1---6---1---6---1---6------3-4-6--------8--------
G|---4----------4---1---4---1---4---1---4-------------------8---8--8-
D|-5------------3---3---3---3---3---3---3-------------------8--------
A|--------------5---3---5---3---5---3---5----------------------------
E|----------3---3---1---3---1---3---1---3----------------8-----------


e|---------------------------3---------------------------------------
B|-----4------------7-6------3-------------------4---3---------------
G|-----2------0-7-8----------3------7---8--------6---5---------------
D|-----1---------------------5------7---8--------5---4---------------
A|-----3-----------------5---5------x---x--------x---5---------------
E|-1---1-----------------3---3------6---8--------5-------------------


e|---------------3----------------------5------8---10------3---------
B|---------------3----------------------5------8---10------3---------
G|-----5-8-7-----3----------------------6------8---10------3---------
D|-4-7-----------5----------5-7-8-5-----7------8---10------5---------
A|---------------5--------5-------------7------x---x-------5---------
E|-----------3---3------------------5---5------8---10------3---------




                                                                        232
e|-------------------3-----------------------------------------------
B|-6---8-------------3-----------------------------------------------
G|-7---8-------------3-----------------------------------------------
D|-7---8-------------5-----------------------------------------------
A|-x---x-------------5-----------------------------------------------
E|-6---8---------3---3-----------------------------------------------


J'ai caché
Mieux que partout ailleurs
Au grand jardin de mon coeur
Une petite fleur

Cette fleur
Plus jolie qu'un bouquet
Elle garde en secret
Tous mes rêves d'enfant
L'amour de mes parents
Et tous ces clairs matins
Faits d'heureux souvenirs lointains

Quand la vie
Par moments me trahi
Tu restes mon bonheur
Petite fleur

Sur mes vingt ans
Je m'arrête un moment
Pour respirer
Ce parfum que j'ai tant aimé

Dans mon coeur
Tu fleuriras toujours
Au grand jardin d'amour
Petite fleur
Petite fleur


Fin de la chanson sur une des versions de l'album


e|------------------------11-10-------10-----------------------------
B|---11----10-------10-13-------11--------------10-11------10--------
G|--12----11-----11----------------12--------12-------12--11---------
D|-13----12-------------------------------12-------------12----------
A|-------------------------------------------------------------------
E|-------------------------------------------------------------------


e|-------------------------------------------------------------------
B|-----------11-10-----11---10---------11---------10-----------------
G|-----------------13-12---11---------12---------11------------------
D|-14-13-14---------------12--------------------12-------------------
A|-------------------------------------------------------------------
E|-------------------------------------------------------------------




                                                                        233
e|----------11-10-13---13----10-11-13-11-/10----11--------------11---
B|----10-13------------12--------------------------13----------13----
G|-11------------------12-----------------------------12------12-----
D|---------------------12--------------------------------13--13------
A|-------------------------------------------------------------------
E|-------------------------------------------------------------------


e|----10/11-10----10-------10----------------------------------------
B|-13----------13----11-------------10-11------10--------------------
G|----------------------12-------12-------12--11---------------------
D|----------------------------12-------------12----------------------
A|-------------------------------------------------------------------
E|-------------------------------------------------------------------


e|------------------------------------------10----------8--------10--
B|---13---------11---------10---------8---8----8-------8--------10---
G|--12---------12---------11---------7----------------8--------10----
D|-13---------12---------12---------8------------8---10-------10-----
A|-------------------------------------------------------------------
E|-------------------------------------------------------------------


e|--------10-------------------------------3-6-5----3----------------
B|----8------8---------------------------3----------3----------------
G|---7---------------6---5-------------3------------3----------------
D|--8----------8-----5---4-----------5--------------5----------------
A|-------------------6---5---------5----------------5----------------
E|-----------------------------3-6------------------3----------------




                                                                        234
Jean Leloup - Printemps Été

    A     E     Bm   F#m    D
e|--0-----0-----2-----2-----2--|
B|--2-----0-----3-----2-----3--|
G|--2-----1-----4-----2-----2--|
D|--2-----2-----4-----4-----0--|
A|--0-----2-----2-----4--------|
E|--------0-----------2--------|


Intro (chanter le solo de guitare)
                     A       E         Bm      F#m       A       E
   1 + 2 + 3 + 4 +   1 + 2 + 3 + 4 +   1 + 2 + 3 + 4 +   1 + 2 + 3 + 4 +
e|----------9--8-7-|-5---------------|-----------------|-----------------|
B|-----------------|-----------------|-----------------|-----------------|
G|----------9--8-7-|-6-----6---------|-----6-----------|-----------------|
D|-----------------|-----7---9-----7-|-9-----7---------|-----6---6-------|
A|-----------------|---7-------------|---------9-------|---7---7-------9-|
E|-----------------|-----------------|-----------------|-----------------|

   Bm       F#m
   1 + 2 + 3 + 4 +
e|------------------|
B|------------------|
G|------------------|
D|------------------|
A|-8----------------|
E|-------10-9-------|

A                                E
  C'est le printemps et c'est l'été et les filles sont
        Bm                              F#m
Déshabillées et les filles sont déshabillées
A                         E
  Les motos sont enfin sorties et les motards nous font du
Bm                                 F#m
bruit et les motards nous font du bruit
D                                  E
  Les femmes arrosent leurs bacs à fleurs
D                           E
  Et tout resplendit de bonheur
D                     E                          D
  Et elle sont à lézarder devant la maison à l'entrée
                E             A
les filles qui sont déshabillées...       1 2 3!

A                                E
  C'est le printemps et c'est l'été les et terrasses se sont
    Bm                           F#m
Remplies et les gens sont épanouis
A                             E
  Comme des oiseaux sortis du nid les petits enfants qui
   Bm                              F#m
Pépient dans les piscines font pipi
D                          E
  Et je m'ennuie de toi jolie
D            E           A
  Tu mettras ta jupe à midi


                                                                             235
e|--------|-2-|
B|-2--1-0-|-2-|
G|-2--1-0-|-2-|
D|-2--1-0-|-4-|
A|--------|-4-|
E|--------|-2-|

F#m            D                      A                             E
Cocotte ma pelote, ote ta petite culotte, montre-moi ton poil carotte

             D                  E                   A
    Amoureux fou comme un petit roux, laid comme un poux

F#m                        D
 Les filles profitent du soleil en cirant l'auto du
  F#m                            D
Copain et ça gigote les culs les seins
F#m                            D                                  F#m
 Pendant qu'ça frotte à belles mains et qu'ça gigote les culs les seins ça
         E                   A
bronze autour du maillot de bain

A                                E
  C'est le printemps et c'est l'été, les pommiers, les lilas en
Bm                                     F#m
fleur nous en foutent plein le nez d'odeurs
A                         E                                 Bm
  Ça se promène parmi les rues, les trottoirs et les filles nues
                      F#m
Ça se mélange les senteurs

D                            E
  Les pommiers, les lilas en fleurs
D                              E
  Les filles fraîches et en sueur
D                      E                                       D      E
  Ça se mélange les senteurs les p'tites culottes, c'est le bonheur

A                                 E
  C'est le printemps et c'est l'été il sera dur d'être
   Bm                               F#m
fidèle, ce mois-ci les filles sont si belles
A                           E
  D'ailleurs je ne le serai pas alors pourquoi s'casser la
Bm                            F#m
tête, la vie est une grande fête

D                     E
 Le soleil est si généreux pour ceux qui n'ont pas de
   D                    E                 A
travail bien fait pour les autres, qu'ils braillent

(chanter le solo de guitare)
   A       E         Bm      F#m       A       Em        Bm      F#m
   1 + 2 + 3 + 4 +   1 + 2 + 3 + 4 +   1 + 2 + 3 + 4 +   1 + 2 + 3 + 4 +
e|-----------------|-----------------|-----------------|------------------|
B|-----------------|-----------------|-----------------|------------------|
G|-------6---------|-----6-----------|-----------------|------------------|
D|-----7---9-----7-|-9-----7---------|-----6---6-------|------------------|
A|---7-------------|---------9-------|---7---7-------9-|-8----------------|
E|-----------------|-----------------|-----------------|-------10-9-------|
                                                                              236
   A       E         Bm      F#m       A       Em        Bm      F#m
   1 + 2 + 3 + 4 +   1 + 2 + 3 + 4 +   1 + 2 + 3 + 4 +   1 + 2 + 3 + 4 +
e|-----------------|-----------------|-----------------|------------------|
B|-----------------|-----------------|-----------------|------------------|
G|-------6-------6-|-7-6-------------|-----------------|------------------|
D|-----7---9-------|-----9-7---------|-----6---6-7-9-7-|-6----------------|
A|---7-------------|---------9-------|---7---7---------|---9-8------------|
E|-----------------|-----------------|-----------------|-------10-9-------|



On ralentit et on fait jusqu'à la fin:
    A               D                  C#5            F#m
    1   +   2   +   3   +   4   +      1   +  2   +   3   +   4   +
e|------5-5-------------5-5---------|-----4-4-------------2-2----------|
B|------5-5-------------7-7---------|-----x-x-------------2-2----------|
G|o-----6-6-------------7-7---------|-----6-6-------------2-2---------o|
D|o-----7-7-------------7-7---------|-----6-6-------------4-4---------o|
A|------7-7-----7---5---5-5-----5---|-4---4-4-----4-------4-4----------|
E|--5---5-5-------------------------|-----------------2---2-2-----4----|

C'est   le printemps et   c'est l'été tu viens de me téléphoner
Tu es   loin, mon coeur   est brisé
C'est   le printemps et   c'est l'été tu viens de me téléphoner
Tu es   loin, mon coeur   est brisé

e|---------4-----|
B|-----5-4-------|
G|---6-----------|
D|-7-------------|
A|---------------|
E|---------------|




                                                                              237
Jean Leloup - Promeneur

Shuffle beat

      Am    Em Ebm7b5 C       G   Fmaj7   F     E
e|----0-----0-----2-----0-----3-----0-----1-----0----
B|----1-----0-----1-----1-----0-----1-----1-----0----
G|----2-----0-----2-----0-----0-----2-----2-----1----
D|----2-----2-----1-----2-----0-----3-----3-----2----
A|----0-----2-----------3-----2-----------3-----2----
E|----------0-----------------3-----------1-----0----


Intro (et rythme de base):
  G         Am                                  Em
  3 + 4 +   1 + 2 + 3 + 4 +   1 + 2 + 3 + 4 +   1 + 2 + 3 + 4 +
e---------|-----0-0---0-0-0-|---0-0-0---0-0-0-|-----0-0---0-0-0-|
B---0-0-0-|-1---1-1---1-1-1-|---1-1-1---1-1-1-|-----0-0---0-0-0-|
G---0-0-0-|-2---2-2---2-2-2-|---2-2-2---2-2-2-|-----0-0---0-0-0-|
D---0-0-0-|-2---2-2---2-2-2-|---2-2-2---2-2-2-|-----2-2---2-2-2-|
A---------|-----0-0---0-0-0-|---0-0-0---0-0-0-|-----2-2---2-2-2-|
E---------|-----------------|-----------------|-0---0-0---0-0-0-|

                     Ebm7b5                              Am
   1 + 2 + 3 + 4 +   1 + 2 + 3 + 4 +   1 + 2 + 3 + 4 +   1 + 2 + 3 + 4 +
e|-----0-0---0-0-2-|-2---2-2---2-2-2-|-2---2-2---2-2-2-|-0---0-0---0-0-0-|
B|-----0-0---0-0-1-|-1---1-1---1-1-1-|-1---1-1---1-1-1-|-1---1-1---1-1-1-|
G|-----0-0---0-0-2-|-2---2-2---2-2-2-|-2---2-2---2-2-2-|-2---2-2---2-2-2-|
D|-----2-2---2-2-1-|-1---1-1---1-1-1-|-1---1-1---1-1-1-|-2---2-2---2-2-2-|
A|-----2-2---2-2---|-----------------|-----------------|-0---0-0---0-0-0-|
E|-0---0-0---0-0---|-----------------|-----------------|-----------------|

                     C
   1 + 2 + 3 + 4 +   1   + 2   + 3   + 4   +
e|---0---0---0---0-|-----0-----0-----0-0---0-|
B|---1---1---1---1-|-----1-----1-----1-1---1-|
G|---2---2---2---2-|-----0-----0-----0-0---0-|
D|-----------------|-------0h2---2---2-2---2-|
A|-0---0---0---2---|-3-----------------------|
e|-----------------|-------------------------|

   G                 Am                G
   1 + 2 + 3 + 4 +   1 + 2 + 3 + 4 +   1 + 2 + 3 + 4 +
e|-----------------|-----------------|---3---3---3---3-|
B|-----------------|-----------------|---0---0---0---0-|
G|-----------------|-----------------|---0---0---0---0-|
D|-------...-------|-------...-------|---0---0---0---0-|
A|-----------------|-----------------|---------0---2---|
E|-----------------|-----------------|-3---3-----------|


G    Am
        La route est noire à présent
                            Em
Il y a des rivières de sang
Ebm7b5
        Le ciel se couvre plein d'orages
                               Am
Je ne marcherai pas davantage


                                                                             238
C   G   Am   G

   C         G         Am        G         C
   1 2 3 4   1 2 3 4   1 2 3 4   1 2 3 4   1
e|---------|---------|---------|---------|---
B|---------|---------|---------|---------|---
G|4b5------|5b7------|-5-------|7b9----4-|b5-
D|---------|---------|---------|---------|---
A|---------|---------|---------|---------|---
E|---------|---------|---------|---------|---


                 G                Am
  On a beau dire, on a beau faire
                     G                  C
La vie suit son cours au gré des amours
                       G                    Am
Je t'aime et te quitte, nous sommes quittes
                   G                 C
Tu pars pour de bon de toutes façons


          Fmaj7                      C
Promeneur, la chanson que tu chantes
                        E                        Am
Je l'ai souvent chantée, je l'ai souvent chantée
           Fmaj7                   C
Et la corde dont tu veux te pendre
                      E                      Am
Je l'ai souvent nouée, je l'ai souvent nouée
          Fmaj7                    C
Et le clou où tu veux te suspendre
                      E                       Am
Je l'ai souvent cloué, je l'ai souvent cloué

Et le clou


Solo (se joue avec une slide normalement):

  (Am)                       F                         C
   1   + 2   + 3   + 4   +   1   + 2   + 3   + 4   +   1   + 2   + 3   + 4   +
e|-------------------------|-------------------------|-------------------------|
B|-------------------------|-------------------------|-------------------------|
G|------------------4b5----|-2-----------------4-----|b5-----------------------|
D|-------------------------|-------------------------|-------------------------|
A|-------------------------|-------------------------|-------------------------|
E|-------------------------|-------------------------|-------------------------|

   G                         C                         G
   1   + 2   + 3   + 4   +   1   + 2   + 3   + 4   +   1   + 2   + 3   + 4   +
e|-------------------------|-------------------------|-------------------------|
B|-------------2/----------|-5-----------6---------3-|-------------------------|
G|-4-----------2/----------|-5---------------5-------|-------------2/----------|
D|-------------------------|-------------------------|-------------------------|
A|-------------------------|-------------------------|-------------------------|
E|-------------------------|-------------------------|-------------------------|




                                                                                   239
   Am                        G                         C
   1   + 2   + 3   + 4   +   1   + 2   + 3   + 4   +   1   + 2   + 3   + 4   +
e|-8---8---8---8---8---8---|-10b....12--------10b12--|-8-----------6---6---6---|
B|-------------------------|-------------------------|---------------8---8---8-|
G|-------------------------|-------------------------|-------------------------|
D|-------------------------|-------------------------|-------------------------|
A|-------------------------|-------------------------|-------------------------|
E|-------------------------|-------------------------|-------------------------|


   G                         Am                        G                        C
   1   + 2   + 3   + 4   +   1   + 2   + 3   + 4   +   1   + 2   + 3   + 4 +    1
e|-6-----------------6-----|-------------------------|------------------------|---
B|-------------------------|-8-----------------------|-------------\----/5----|---
G|-------------------------|-------------------------|------------------------|-5-
D|-------------------------|-------------------------|------------------------|---
A|-------------------------|-------------------------|------------------------|---
E|-------------------------|-------------------------|------------------------|---


C                   G              Am
  Tu m'as recueilli, tu m'as trahi
                    G                       C
Les levers de soleil ne seront plus pareils
                      G                         Am
Combien de vieillards meurent en criant regrets
                          G                          C
Il est beaucoup trop tard, il est beaucoup trop loin


          Fmaj7                  C
Promeneur, dans ton terrain vague
                          E                  Am
Le cadavre qu'on drague à la pointe du jour
              Fmaj7         C
C'est la fille du pasteur
                      E                 Am
Un ancien mercenaire l'a tuée de colère
          Fmaj7                     C
À présent, il se cache et il pleure
                    E                     Am
Le canon d'un fusil pointé sur son coeur
          Fmaj7         C               G
Il repense à sa mère, à l'enfance bénie


Et puis
           Am   G                  C       F
Il tire,            il vise bien
           Am   G              C           F
Il tire,          il vise bien
           Am   G    C    Fmaj7        C       G   C G C
Il tire,




                                                                                     240
Jean Leloup - Sang D'Encre

  Cmaj#11 Am    G   Gadd9   Fadd9   D    Em   Gx   Amx   C   Emadd9   Amsus2
e|---0-----5----3-----5-------3-----2----0----3-----0----0-----0--------0----|
B|---3-----5----3-----3-------1-----3----0----0-----1----1-----0--------0----|
G|---0-----5----4-----4-------2-----2----0----0-----2----0-----0--------2----|
D|---4-----7----5-----x-------x-----0----2----0-----2----2-----4--------2----|
A|---3-----7----5-----5-------3----------2----2-----0----3-----2--------0----|
E|---------5----3-----3-------1----------0----3----------------0-------------|


Intro:

   4 + +   1 + + 2 + + 3 + + 4 + +   1 + + 2 + + 3 + + 4 + +
e|-------|-------------------------|-------------------------|
B|-------|-------------------------|-------------------------|
G|-------|-------7-----------7-7-7-|-7-----7-----------------|
D|---5-7-|/9-9-9-9-9-7---7---7-7-7-|-7-5---7-5-----------5-7-|
A|-7-----|-------------5---5-------|-----7-----7-7(7)7-7-----|
E|-0-----|-------------------------|-------------0(0)0-0-----|

                                              Je me suis
   1 + + 2 + + 3 + + 4 + +   1 + + 2 + + 3 + + 4 + +
e|-------------------------|-------------------------|
B|-------------------------|-------------------------|
G|-------7-----------7-7-7-|-7-----7-----------------|
D|/9-9-9-9-9-7---7---7-7-7-|-7-5---7-5-----------5-7-|
A|-------------5---5-------|-----7-----7-7(7)7-7-----|
E|-------------------------|-------------0(0)0-0-----|

(On continue à faire le même riff jusqu'à "J'ai envoyé..."

Fait un sang d'encre pour toi
Comme une pieuvre dans un gros bac chinois
À voir ta gueule ce matin je te crois
J'ai bien fait de penser très fort à toi

(À partir d'ici, on commence à jouer les accords)

exemple de rythme :
  Am
   1 + + 2 + + 3 + + 4 + +
e|-------5-----------5-----|
B|-------5-----------5-----|
G|-------5-----------5-----|
D|-7-7-7-7-7-7-7-7-7-7-7-7-|
A|-7-7-7-7-7-7-7-7-7-7-7-7-|
E|-5-5-5-5-5-5-5-5-5-5-5-5-|

          Cmaj#11
J'ai envoyé des chanson dans les airs
       Am
En espérant qu'un pigeon voyageur
            G                      Gadd9
Te les chanterait par jour ou noirceur
                Fadd9             Am
Jusqu'à ce que tu reviennes par ici
     Gadd9     Fadd9      Am
par ici, par ici


                                                                                 241
Gadd9                Fadd9
Ne me raconte plus jamais de salades
Am
Dis-moi toujours quand tu te sens malade
Gadd9              Fadd9
J'ai une épaule bourrée de pouvoirs
   Am                                                  Cmaj#11   D   Em Emadd9
Il paraît qu'elle aide à pleurer dans le noir, dans le noir

(On reprend le riff du début jusqu'à "Que nous soyons...")

Je me suis fait un sang d'encre pour toi
Comme une pieuvre dans un gros bac chinois
À voir c'matin les bobos sur tes bras
J'ai bien fait de penser très fort à toi

           Cmaj#11
Que nous soyons amis ou amoureux
           Am
Mais maintenant nos coeurs battent à deux
         G                             Gadd9
Je te comprends beaucoup plus que tu crois
           Fadd9                 Am
Alors s'il-te-plaît la prochaine fois,
        Gadd9        Fadd9          Am
Appelle-moi, appelle-moi

Gadd9                Fadd9
Enfin aujourd'hui te revoilà
Am
À voir les cicatrices sur tes bras
Gadd9                     Fadd9
J'ai bien fait de penser très fort à toi
Am
Je me suis fait un sang d'encre pour toi
Gadd9                   Fadd9
Je me suis fait un sang d'encre pour toi
Am
Comme une pieuvre dans un gros bac chinois
Gadd9                Fadd9
À voir c'matin les bobos sur tes bras
Am
J'ai bien fait de penser très fort à toi
Cmaj#11                 D
Je me suis fait un sang d'encre pour toi
Em
Je me suis fait un sang d'encre pour toi
Cmaj#11                 D
Je me suis fait un sang d'encre pour toi


(Ici, on peut changer les accords (Emadd9 pour E, Gadd9 pour Gx, Amsus2 pour
Amx et Cmaj#11 pour C, mais je suggère de jouer une fois les accords normaux
avant de substituer.)




                                                                                 242
Em                   Gx
Le collier que tu m'avais fabriqué
Amx                      C
Hier à cinq heures moins quart s'est brisé
Em                   Gx
Que s'est-il passé à cinq heures moins quart
Amx                   C
Probablement qu'on te voulait du mal
Em                      Gx
Je me suis fait un sang d'encre pour toi
Amx                        C
Comme une pieuvre dans un gros bac chinois
Em                   Gx
À voir c'matin les bobos sur tes bras
Amx                      C
J'ai bien fait de penser très fort à

  toi
   4 + +   1 + + 2 + + 3 + + 4 + +   1 + + 2 + + 3 + + 4 + +
e|-------|-------------------------|-------------0-----------|
B|-------|-------------------------|-------------0-----------|
G|-------|-------7-----------7-7-7-|-7-----7-----0-----------|
D|---5-7-|/9-9-9-9-9-7---7---7-7-7-|-7-5---7-5---x-----------|
A|-7-----|-------------5---5-------|-----7-----7-7-----------|
E|-0-----|-------------------------|-------------0-----------|
                            ^____On ralentit_____^




                                                                 243
Jean Leloup - Voilà (version Big Band)

Rythme de base (et intro):

    Em              B7                B7              Em
    1 - + - 2 - + - 3 - + - 4 - + -   1 - + - 2 - + - 3 - + - 4 - + -
e|------0-x-x-x-0-x-----2-x-x-x-0-x-|-----2-x-x-x-2-x-----0-x-x-x-2-x--|
B|------0-x-x-x-0-x-----0-x-x-x-0-x-|-----0-x-x-x-0-x-----0-x-x-x-2-x--|
G|o-----0-x-x-x-0-x-----2-x-x-x-2-x-|-----2-x-x-x-2-x-----0-x-x-x-2-x-o|
D|o-----2-x-x-x-2-x-----1-x-x-x-1-x-|-----1-x-x-x-1-x-----2-x-x-x-2-x-o|
A|------2-x-x-x-2-x-2---2-x-x-x-2-x-|-2---2-x-x-x-2-x-----2-x-x-x-2-x--|
E|--0---0-x-x-x-0-x-----------------|-----------------0---0-x-x-x-0-x--|


Intro:

Em   B7   B7   Em   4x

Em                        B7
   Je veux te dire que je t'aime, voilà
B7                        Em
   Je veux te dire que je t'aime, voilà
Em                        B7                     B7    Em
   Je veux te dire que je t'aime, n'importe quoi

Em                              B7                              Em
   Je veux te dire que quand tu m'aimes je me sens presqu'exactement
                        B7                              Em
Aussi heureux que le soleil quand il descend dans l'océan
                           B7                           Em
Comme un carré qui tournerait comme une ligne qui casserait
B7                         Em      B7
   Une araignée qui se console     Voilà
B7                         Em
   Je veux te dire que je t'aime, voilà
Em                         B7            B7    Em
   Je veux te dire que je t'aime, voilà


Em   B7   B7   Em   2x


Em                        B7
   Je veux te dire que je t'aime, voilà
B7                        Em
   Je veux te dire que je t'aime, n'importe quoi
Em                        B7            B7    Em
   Je veux te dire que je t'aime, voilà




                                                                           244
Em                              B7                              Em
   Je veux te dire que quand tu m'aimes je me sens presqu'exactement
                        B7                              Em
Aussi heureux que le soleil quand il descend dans l'océan
                           B7
Comme un carré qui tournerait
Em                     B7                           Em
Un cosmonaute qui s'envole une araignée qui se console
                        B7           B7      Em
Je veux te dire que je t'aime, voilà
Em                         B7                    B7     Em
   Je veux te dire que je t'aime, n'importe quoi

G                    D                   Em
Oh, ma belle aventurière au coeur si téméraire
            Am                           G
Je suis brisé, moulu sur les rochers pointus
               D                     Em
Des amitiés déçues des amours sans issue
         Am
L'ange déchu

G                    D
Oh, ma belle naufragère
Em                  Am
   Mon navire a coulé
                       G
Veux-tu m'accompagner?
                  D                      B7
À l'entour de la terre pour un dernier baiser

             Em B7 B7 Em               Em B7 B7 Em
Laisse-la                  Laisse-la



Solo:
Em B7   B7    Em     7x


Em                          B7                         Em
  La nuit que j'ai passée hier fut la plus belle de ma vie
                         B7
Si je mens je vais en enfer
                      Em
Avec toi c'est le paradis

G                       D                    Em
Oh, ma belle aventurière ma splendide guerrière
                  Am                          G
Ton armure est de fer je suis vaincu d'avance
                      D                   Em                 Am
Et aucune importance je dépose à tes pieds fusil et bouclier
G                   D                 Em
Oh ma cruelle geôlière tu as du caractère
                 Am                        G                       D
On ne peut en douter ton âme est pure et fière mais moi je suis sincère
                      B7
Mais moi je suis sincère


                                                                          245
Solo:
Em B7   B7   Em   4x
G   D   Em   Am   3x
G   D   B7
Em B7   B7   Em   jusqu'au fade out




                                      246
Jean Leloup - Voyager

    Bm   A    Em   D   Dbm Bmx F#m     Dx Emx    G    Gx
e|--7----5----7----5----4----2----2----2----0----3----10--|
B|--7----5----8----7----5----3----2----3----0----0----12--|
G|--7----6----9----7----6----4----2----2----0----0----12--|
D|--9----7----9----7----6----4----4----0----2----0----12--|
A|--9----7----7----5----4----2----4---------2----2----10--|
E|--7----5------------------------2---------0----3--------|


Intro:

Riff A
   1   +   2   +   3   +   4   +     1   +   2   +   3   +   4   +
e|-5---5-5-5-5-5---5-5-5-5-5---5-5-|-2---2-2-2-2-2---2-2-2-2-2---2-2-|
B|-3-----------3-----------3-------|-3-----------3-----------3-------|
G|-4-----------4-----------4-------|-4-----------4-----------4-------|
D|---------------------------------|---------------------------------|
A|---------------------------------|---------------------------------|
E|---------------------------------|---------------------------------|

   1   +   2   +   3   +   4   +     1   +   2   +   3   +   4   +
e|-0---0-0-0-0-0---0-0-0-0-0---0-0-|-0---0-0-0-0-0---0-0-0-0-0---0-0-|
B|-5-----------5-----------5-------|-0-----------0-----------0-------|
G|-4-----------4-----------4-------|-2-----------2-----------2-------|
D|---------------------------------|---------------------------------|
A|---------------------------------|---------------------------------|
E|---------------------------------|---------------------------------|


Riff B
   1   +   2   +   3   +   4   +     1   +   2   +   3   +   4   +
e|-2---0-0-0-0-2---0-0-0-0-2---3---|-2---0-0-0-0-2---0-0-0-0-2---0---|
B|-3-----------3-----------3---3---|-3-----------3-----------3---3---|
G|-4-----------4-----------4---4---|-4-----------4-----------4---4---|
D|---------------------------------|---------------------------------|
A|---------------------------------|---------------------------------|
E|---------------------------------|---------------------------------|

   1   +   2   +   3   +   4   +     1   +   2   +   3   +   4   +
e|-0---0-0-0-0-0---0-0-0-0-0---0-0-|-5---5-5-5-5-5---5-5-5-5-5---5-5-|
B|-3-----------3-----------3-------|-3-----------3-----------3-------|
G|-2-----------2-----------2-------|-2-----------2-----------2-------|
D|---------------------------------|---------------------------------|
A|---------------------------------|---------------------------------|
E|---------------------------------|---------------------------------|


Riff C
   1   +   2   +   3   +   4   +     1   +   2   +   3   +   4   +
e|-5---5-5-5-5-5---5-5-5-5-5---5-5-|-2---2-2-2-2-2---2-2-2-2-2---2-2-|
B|-3-----------3-----------3-------|-3-----------3-----------3-------|
G|-4-----------4-----------4-------|-4-----------4-----------4-------|
D|---------------------------------|---------------------------------|
A|---------------------------------|---------------------------------|
E|---------------------------------|---------------------------------|




                                                                         247
On joue le riff A(2 fois), B(2 fois), C(4 fois), A(2 fois), B(2 fois), C(4
fois), B(2 fois), ici les paroles embarquent

C(4 fois)
J'aimerais parfois m'arrêter
Trouver un endroit ou rester
Mais je n'aime que voyager
Et je ne fais que passer


Bm        A              Em      A
Parfois j'ai envie de stopper
Bm          A               Em       A
Soit que je rencontre un ami
Bm      A                   Em       A
Ou que je me sentes endormi
Bm    A                   Em       A
Je stationne un peu par ici
Bm      A                   Em       A
Car il faut des fois un accord
Bm          A            Em      A
Entre la peur et le confort
Bm          A               Em       A
Entre la voile et puis le port
D           Dbm              Bmx       F#m (répéter ces 2 accords 3 autres fois)
Entre la vie et puis la mort


Riff A(2 fois)

Riff B(2 fois)
J'aime beaucoup trop le mouvement
Et ne serait-ce qu'un instant
je n'ose jamais me surprendre
je n'arrive jamais a me rendre

Riff C(4 fois)
Et je ne fais que    passer
Je ne fais jamais    que passer
Et je ne fais que    passer
Je ne fais jamais    que passer

Bm                           D
Parfois j'ai envie de stopper
Em                           G
Soit que je rencontre un ami
Bm                       D
Ou que je me sente endormi
Em                         G
Je stationne un peu par ici
Bm                         D
Car il faut des fois un accord
Em                     G
Entre la peur et le confort
Bm                           D
Entre la voile et puis le port
Em                       G
Entre la vie et puis la mort

Bm D Em G (2 fois)

                                                                                   248
Bm                       D
J'aimerais parfois m'arreter
Em                       G
Trouver un endroit ou rester
Bm                     D
Mais je n'aime que voyager
Em                   G
Et je ne fais que passer

Continuer jusqu'a la fin (fade out) avec les memes accords en faisant des
tutututututututu.




                                                                            249
Joe Dassin - Les Champs-Élysées

   D                F#7         Bm            D7
Je m'baladais sur l'avenue, le coeur ouvert à l'inconnu
   G              D              E7       A
J'avais envie de dire bonjour à n'importe qui
     D            F#7        Bm          D7
N'importe qui et ce fut toi, je t'ai dit n'importe quoi
   G            D               E7    A D
Il suffisait de te parler pour t'apprivoiser

D    F#7       Bm D7 G  D         E7    A
Aux Champs-Élysées, aux Champs-Élysées
D          F#7            Bm         D7
Au soleil, sous la pluie, à midi ou à minuit
   G                D              E7      A      D
Il y a tout ce que vous voulez aux Champs-Élysées

Em    A    D    Bm     Em    A    D

D                  F#7              Bm          D7
Tu m'as dit "J'ai rendez-vous dans un sous-sol avec des fous
      G                D            E7       A
Qui vivent la guitare à la main du soir au matin"
  D            F#7             Bm           D7
Alors je t'ai accompagné, on a chanté, on a dansé
    G            D         E7     A    D
Et l'on n'a même pas pensé à s'embrasser

D    F#7       Bm D7 G  D         E7    A
Aux Champs-Élysées, aux Champs-Élysées
D          F#7            Bm         D7
Au soleil, sous la pluie, à midi ou à minuit
   G                D              E7      A      D
Il y a tout ce que vous voulez aux Champs-Élysées

Em    A    D    Bm     Em    A    D

D              F#7         Bm           D7
Hier soir deux inconnus et ce matin sur l'avenue
     G             D             E7        A
Deux amoureux tout étourdis par la longue nuit
   D             F#7          Bm               D7
Et de l'Étoile à la Concorde, un orchestre à mille cordes
     G               D              E7       A     D
Tous les oiseaux du point du jour chantent l'amour

D    F#7       Bm D7 G  D         E7    A
Aux Champs-Élysées, aux Champs-Élysées
D          F#7            Bm         D7
Au soleil, sous la pluie, à midi ou à minuit
   G                D              E7      A      D
Il y a tout ce que vous voulez aux Champs-Élysées

Em    A    D    Bm     Em    A    D




                                                               250
Kain - Fausse misère

      C    G    Am   F    Em Am7/b
e|----0----3----0----1----0----0----
B|----1----0----1----1----0----1----
G|----0----0----2----2----0----0----
D|----2----0----2----3----2----x----
A|----3----2----0----3----2----2----
E|---------3---------1----0---------

Shuffle beat

Rythme de base:

   C
   1   + 2   + 3   + 4   +
e|-------0---0-----0-0---0-|
B|-------1---1-----1-1---1-|
G|-------0---0-----0-0---0-|
D|-------2---2-----2-2---2-|
A|-3-----3---3-----3-3---3-|
E|-------------------------|


Intro:

   C                         F
   1   + 2   + 3   + 4   +   1   + 2   + 3   + 4   +
e|/10--------8-------------|-------------------8-----|
B|/10--------8-----------10|-----------10--------10--|
G|-------------------------|-----10----------9-----9-|
D|-------------------------|-------------------------|
A|-------------------------|-------------------------|
E|-------------------------|-------------------------|

   Am                                          Am7/B
   1   + 2   + 3   + 4   +   1   + 2   + 3   + 4   +
e|/10--------8-----------10|/12--------------13\12---|
B|/10--------8-------------|-------------------------|
G|-----------------------7-|/9---------------10\9----|
D|-------------------------|-------------------------|
A|-------------------------|-------------------------|
E|-------------------------|-------------------------|

   C                         F
   1   + 2   + 3   + 4   +   1   + 2   + 3   + 4   +
e|/10--------8-------------|-------------------8-----|
B|/10--------8-----------10|-----------10--------10--|
G|-------------------------|-----10----------9-----9-|
D|-------------------------|-------------------------|
A|-------------------------|-------------------------|
E|-------------------------|-------------------------|




                                                         251
   Am                                          Am7/B
   1   + 2   + 3   + 4   +   1   + 2   + 3   + 4   +
e|/10--------8-----------10|/12--------------13\12---|
B|/10--------8-------------|-------------------------|
G|-----------------------7-|/9---------------10\9----|
D|-------------------------|-------------------------|
A|-------------------------|-------------------------|
E|-------------------------|-------------------------|

   C                          G
   1   + 2   + 3   + 4    +   1   + 2    + 3   + 4   +
e|-----15\13---12--13-12--10|-----12-10--8-----------5-|
B|-----17\15---13--15-13--12|-----13-12--10----------5-|
G|--------------------------|--------------------------|
D|--------------------------|--------------------------|
A|--------------------------|--------------------------|
E|--------------------------|--------------------------|

   Am                        F           G
   1   + 2   + 3   + 4   +   1   + 2   + 3   + 4   +
e|-----------7-----------8-|-----------10------------|
B|-----------8-----------10|-----------12------------|
G|-------------------------|-------------------------|
D|-------------------------|-------------------------|
A|-------------------------|-------------------------|
E|-------------------------|-------------------------|

   C                          Em
   1   + 2   + 3   + 4    +   1   + 2    + 3   + 4   +
e|-----15\13---12--13-12--10|-----12-10--8-----------5-|
B|-----17\15---13--15-13--12|-----13-12--10----------5-|
G|--------------------------|--------------------------|
D|--------------------------|--------------------------|
A|--------------------------|--------------------------|
E|--------------------------|--------------------------|

   Am                        F           G             C
   1   + 2   + 3   + 4   +   1   + 2   + 3   + 4   +   1   +
e|-----------7-----------8-|-----------10------7---7-|-----8--
B|-----------8-----------10|-----------12------8---8-|--------
G|-------------------------|-------------------------|--------
D|-------------------------|-------------------------|--------
A|-------------------------|-------------------------|--------
E|-------------------------|-------------------------|--------


C       G Am                       F    G
  L’univers m’avait dit de me taire, d’éteindre la lumière
C               Em Am                     F       G
  Si c’est éphémère, j’ai fini d’attendre pour te conter l’histoire

   C                          Em
   1   + 2   + 3    + 4   +   1   + 2   + 3   + 4   +
e|-----------10/12----12--10|-------------------------|
B|--------------------------|-------------13----12--10|
G|--------------------------|-------------------------|
D|--------------------------|-------------------------|
A|--------------------------|-------------------------|
E|--------------------------|-------------------------|


                                                                      252
   Am
   1   + 2   + 3   + 4   +   1   + 2   + 3   + 4   +
e|-----------12------------|/10----8-----7----/10--8-|
B|----------------(12)-----|-------------------------|
G|----(9)------------------|-------------------------|
D|-------------------------|-------------------------|
A|-------------------------|-------------------------|
E|-------------------------|-------------------------|

C          Em Am                  F          G
  Encore hier, j’suis resté couché pour pas aller travailler
C              Em Am           F             G
  Pour rien devoir à la société qui vient toujours m’égorger



Ce bout de solo là joue pendant les 4 prochaines lignes de paroles

   C                         Em
   1   + 2   + 3   + 4   +   1   + 2   + 3   + 4   +
e|/15--------12------------|-----15----10------------|
B|-------------------------|-------------------------|
G|-------------------------|-------------------------|
D|-------------------------|-------------------------|
A|-------------------------|-------------------------|
E|-------------------------|-------------------------|

   Am                        F           G
   1   + 2   + 3   + 4   +   1   + 2   + 3   + 4   +
e|-15--------8-------------|-----------------------10|
B|-------------------------|-------------------------|
G|-------------------------|-------------------------|
D|-------------------------|-------------------------|
A|-------------------------|-------------------------|
E|-------------------------|-------------------------|

   C                         Em
   1   + 2   + 3   + 4   +   1   + 2   + 3   + 4   +
e|/12----15--------15------|-15--------10------------|
B|-------------------------|-------------------------|
G|-------------------------|-------------------------|
D|-------------------------|-------------------------|
A|-------------------------|-------------------------|
E|-------------------------|-------------------------|

   Am                        F           G
   1   + 2   + 3   + 4   +   1   + 2   + 3   + 4   +
e|-8-----------------------|-8-----------------------|
B|---10--------------------|---10--------------------|
G|-----9-------------------|-----9-------------------|
D|-------7-----------------|-------7-----------------|
A|-------------------------|-------------------------|
E|-------------------------|-------------------------|




                                                                     253
C                           Em                      Am
  Pis j’me suis mis à penser, à délirer, à craquer,
                      F       G
Le chèque de paie est toujours pas arrivé
C                                Em                      Am
  Les comptes vont encore rentrer, encore me déboussoler
                         F                G
Mais là j’suis si fatigué que j’m’en vais quêter du blé


C       G Am                       F    G
  L’univers m’avait dit de me taire, d’éteindre la lumière
C               Em Am                     F       G
  Si c’est éphémère, j’ai fini d’attendre pour te conter l’histoire


   C                         G
   1   + 2   + 3   + 4   +   1   + 2   + 3   + 4    +
e|-------------15--10----12|-----------10-------------|
B|-------------------------|-----------------13-10--13|
G|-------------------------|--------------------------|
D|-------------------------|--------------------------|
A|-------------------------|--------------------------|
E|-------------------------|--------------------------|

   Am                        F           G
   1   + 2   + 3   + 4   +   1   + 2   + 3   + 4   +
e|-------------------------|-------------10----------|
B|-----------10------------|-----------10------12--13|
G|-----------------9-------|---------9-------9-------|
D|-------------------------|-------------------------|
A|-------------------------|-------------------------|
E|-------------------------|-------------------------|

   C                         Em
   1   + 2   + 3   + 4   +   1   + 2   + 3   + 4   +
e|-----------15----------10|-------------------------|
B|-------------------------|-----------12----------13|
G|-------------------------|-------------------------|
D|-------------------------|-------------------------|
A|-------------------------|-------------------------|
E|-------------------------|-------------------------|

   Am                        F           G
   1   + 2   + 3   + 4   +   1   + 2   + 3   + 4   +
e|-------------------------|-------------------------|
B|-------------------------|/13----------------------|
G|-------------------------|-------9-----------------|
D|-------------------------|-------------12----------|
A|-------------------------|-------------------------|
E|-------------------------|-------------------------|


C               Em Am                     F                G
  Je suis pu capable de regarder le miroir pis d’être fier du résultat
C                Em Am              F                 G
  Encore de la bière pour pouvoir reprendre un peu de confiance en moi


Pendant les 4 prochaines lignes (donc répété 2 fois)

                                                                         254
   C                         Em
   1   + 2   + 3   + 4   +   1   + 2   + 3   + 4   +
e|---15--15--15--15--15--15|---13--13--13--13--13--13|
B|---17--17--17--17--17--17|---15--15--15--15--15--15|
G|-17--17--17--17--17--17--|-16--16--16--16--16--16--|
D|-------------------------|-------------------------|
A|-------------------------|-------------------------|
E|-------------------------|-------------------------|

   Am                        F           G
   1   + 2   + 3   + 4   +   1   + 2   + 3   + 4   +
e|---12--12--12--12--12--12|---13--13--13--15--15--15|
B|---13--13--13--13--13--13|---13--13--13--15--15--15|
G|-14--14--14--14--14--14--|-14--14--14--16--16--16--|
D|-------------------------|-------------------------|
A|-------------------------|-------------------------|
E|-------------------------|-------------------------|


C                     Em                              Am
  Pis là, j’ai réalisé tout ce que j’avais pu manquer
               F         G
La solitude va encore me déboussoler
C                          Em                          Am
  J’ai juste à pu déprimer, à changer de poste de télé
                      F              G
J’ai juste à courir dehors pis crier ma liberté!

C             G Am                            F      G
  Je suis sincère, quand je me dis que la vie peut encore me plaire
C                Em Am                             F      G
  Je veux bien croire, qu’il y a juste de la misère quand on veut en voir

   C                            Em
   1   + 2   + 3   + 4     +    1   + 2   + 3   + 4     +
e|-------12--12--------------|---------------(10b)12r10-8-|
B|-------12--12-----8h10-8---|8h10----10--8---------------|
G|-------------------------9-|----------------------------|
D|---------------------------|----------------------------|
A|---------------------------|----------------------------|
E|---------------------------|----------------------------|

   Am                        F           G
   1   + 2   + 3   + 4   +   1   + 2   + 3   + 4    +
e|-10--8-------------------|--------------------------|
B|-------10--10----8-------|-----10-------------------|
G|-------------------9-----|/9-----9-----7------------|
D|-------------------------|-----------------10-7-----|
A|-------------------------|--------------------------|
E|-------------------------|--------------------------|

   C                         Em
   1   + 2   + 3   + 4   +   1   + 2   + 3   + 4   +
e|-------------------------|-------------------------|
B|-------------------------|-------------------------|
G|----improvisation en C majeur pentatonique....-----|
D|-10----------------------|-------------------------|
A|-------------------------|-------------------------|
E|-------------------------|-------------------------|


                                                                            255
   Am                        F           G             C
   1   + 2   + 3   + 4   +   1   + 2   + 3   + 4   +   1
e|-------------------------|-------------------------|----
B|-------------------------|-------10----/12---12----|-13-
G|---...................---|-------------------------|----
D|-------------------------|-------------------------|----
A|-------------------------|-------------------------|----
E|-------------------------|-------------------------|----

C        Em
    l'univers...

   Em                 Am
e|-0----------------------0--|
B|--0--------------------1---|
G|---0------------------2----|
D|----2----------------2-----|
A|-----2--------------0------|
E|------0--------------------|




                                                             256
Kain - Grandir

Capot à la 4e fret

Shuffle beat
|1 + |    =    |1 - + |
               ^---3--^

Intro

   Am
   1 + 2 + 3 + 4 +   1 + 2 + 3 + 4 +   1 + 2 + 3 + 4 +   1 + 2 + 3 + 4 +
e|-----------------|-----------------|-----------------|-----------------|
B|-1---------------|---------------1-|-----------------|-----------------|
G|-2---------------|---------------2-|-----------------|-----------------|
D|-2---------------|---------------2-|-----------------|-------2-3-2-----|
A|-0-----0-0-2---3-|-------3-3-2---0-|-------0-0-2---3-|-----------------|
E|-----------------|-----------------|-----------------|-----------------|

   Am
   1 + 2 + 3 + 4 +   1 + 2 + 3 + 4 +   1 + 2 + 3 + 4 +   1 + 2 + 3 + 4 +
e|-----------------|-----------------|-----------------|-----------------|
B|-1---------------|---------------1-|-----------------|-----------------|
G|-2---------------|---------------2-|-----------------|-------0-0-------|
D|-2---------------|---------------2-|-----------------|---------0--0h2--|
A|-0-----0-0-2---3-|-------3-3-2---0-|-------0-0-----0-|-----------------|
E|-----------------|-----------------|-----------3-----|-----------------|

   Am                Amsus2              Am                Amsus2
   1 + 2 + 3 + 4 +   1 + 2 + 3 + 4   +   1 + 2 + 3 + 4 +   1 + 2 + 3 + 4   +
e|-----0-0---0-0-0-|-----0-0-----------|-----0-0---0-0-0-|-----0-0-----------|
B|-----1-1---1-1-1-|-----0-0-----------|-----1-1---1-1-1-|-----0-0-----------|
G|-----2-2---2-2-2-|-----2-2---0-----0-|-----2-2---2-2-2-|-----2-2-----------|
D|-----2-2---2-2-2-|-----2-2-0---0h2---|-----2-2---2-2-2-|-----2-2-0---0h2---|
A|-0---------------|-0-----------\___/-|-0---------------|-0-----------\___/-|
E|-----------------|---------------3---|-----------------|---------------3---|


Riff du couplet (et rythme de base):

    Am                Dm                F                 C           C/B
    1 + 2 + 3 + 4 +   1 + 2 + 3 + 4 +   1 + 2 + 3 + 4 +   1 + 2 + 3 + 4 +
e|------0-0---0-0-0-|-----1-1---1-1-1-|-----1-1---1-1-1-|-----0-0---0---0--|
B|------1-1---1-1-1-|-----3-3---3-3-3-|-----1-1---1-1-1-|-----1-1---1---1--|
G|o-----2-2---2-2-2-|-----2-2---2-2-2-|-----2-2---2-2-2-|-----0-0---0---0-o|
D|o-----2-2---2-2-2-|-0---------------|-----3-3---3-3-3-|-----2-2---------o|
A|--0---------------|-----------------|-----3-3---3-3-3-|-3-------3---2----|
E|------------------|-----------------|-1---------------|------------------|




                                                                                 257
Am                      Dm
   J'ai pas besoin d'ennemis dans ma cour
F                     C         C/B
   J'ai tous mes vieux chums imaginaires
Am              Dm
   Dans mon univers défile un scénario
F                             C        C/B
   Un p'tit cul qui se perd à jouer à la guerre
Am                    Dm
   J'étais tellement heureux quand j'étais petit
F                  C                   C/B
   Tellement pas soucieux du reste de la vie
Am                         Dm
   Je r'gardais mes vieux avoir l'air heureux
F                           C                   C/B
   J'aurais voulu grandir, j'savais pas qu'y fallait

Am                                   Dm
     Mentir, mentir, fermer les yeux, faiblir
             F                                             Em      G
     Je veux r'dev'nir un enfant, oubliant tous les règlements

Am                      Dm
   Comme un rêve, j'ai vécu mon enfance
F                       C         C/B
   Comme un rêve, j'ai perdu l'innocence
Am                  Dm
   Perdu l'abondance de ces sourires d'or
F                   C               C/B
   Perdu l'ignorance qui me rendait si fort
Am                     Dm
   J'étais tellement heureux quand j'étais petit
F                 C                   C/B
   Tellement pas soucieux du reste de la vie
Am                         Dm
   Je r'gardais mes vieux avoir l'air heureux
F                           C                  C/B
   J'aurais voulu grandir, j'savais pas qu'y fallait

Am                                   Dm
     Mentir, mentir, fermer les yeux, faiblir
             F                                             Em      G
     Je veux r'dev'nir un enfant, oubliant tous les règlements


Bridge:
Dm                 G               C           C/B Am
Dm                 G               C                             C/B
Dm                 G               C           C/B Am
Dm                 G               C                             C/B

Am                                   Dm
     Mentir, mentir, fermer les yeux, faiblir
        F                                                  Em      G
     Laissez-moi dans ma bulle inventer les scènes une à une




                                                                       258
   Am
   1 + 2 + 3 + 4 +   1 + 2 + 3 + 4 +   1 + 2 + 3 + 4 +   1 + 2 + 3 + 4 +
e|-----------------|-----------------|-----------------|-------0-1-0-----|-0-
B|-1---------0---1-|-------1-1-0---1-|-----------0---1-|-----------------|-1-
G|-2-----2-2-------|---------------2-|-------2-2-------|-----------------|-2-
D|-2---------------|---------------2-|-----------------|-----------------|-2-
A|-0---------------|---------------0-|-----------------|-----------------|-0-
E|-----------------|-----------------|-----------------|-----------------|---




                                                                                259
Lady Gaga - Bad Romance

            F                G         Am                 C
Oh-oh-oh-oh-oooh, oh-oh-oh-oooh-oh-oh, caught in a bad romance
            F                G         E                  Am
Oh-oh-oh-oh-oooh, oh-oh-oh-oooh-oh-oh, caught in a bad romance


Am      F       Am     F             Am    F         C
Rah-rah-ah-ah-ah, roma-roma-ma-ah,   ga-ga-ooh-la-la, want your bad romance
Am      F       Am     F             Am    F         C
Rah-rah-ah-ah-ah, roma-roma-ma-ah,   ga-ga-ooh-la-la, want your bad romance


Am                     C             F
   I want your ugly, I want your disease
Am                           C              G
   I want your everything as long as it’s free
             Am    C         F
I want your love, love-love-love
             Am    C         G
I want your love


Am                        C              F
   I want your drama, the touch of your hand
Am                             C           G
   I want you leather studded kiss in the sand
             Am    C         F
I want your love, love-love-love
             Am    C         G
I want your love


Am
You know that I want you and you know that I need you

I want a bad, your bad romance


F                       G
  I want your loving, I want your revenge
         Am                      C
You and me could write a bad romance
F                              G
  I want your loving, all your love is revenge
         E                       Am
You and me could write a bad romance


            F                G         Am                 C
Oh-oh-oh-oh-oooh, oh-oh-oh-oooh-oh-oh, caught in a bad romance
            F                G         E                  Am
Oh-oh-oh-oh-oooh, oh-oh-oh-oooh-oh-oh, caught in a bad romance


Am      F       Am     F           Am    F         C
Rah-rah-ah-ah-ah, roma-roma-ma-ah, ga-ga-ooh-la-la, want your bad romance



                                                                              260
Am                       C              F
   I want your horror, I want your design
Am                             C              G
   ‘Cause you’re a criminal as long as your mine
             Am    C         F
I want your love, love-love-love
             Am    C         G
I want your love


Am                          C          F
   I want your psycho, your vertical stick
Am                               C         G
   Want you in my room when your baby is sick
             Am    C          F
I want your love, love-love-love
             Am    C          G
I want your love


Am
You know that I want you and you know that I need you

I want a bad, your bad romance


F                       G
  I want your loving, I want your revenge
         Am                     C
You and me could write a bad romance
F                              G
  I want your loving, all your love is revenge
         E                      Am
You and me could write a bad romance


            F                G         Am                 C
Oh-oh-oh-oh-oooh, oh-oh-oh-oooh-oh-oh, caught in a bad romance
            F                G         E                  Am
Oh-oh-oh-oh-oooh, oh-oh-oh-oooh-oh-oh, caught in a bad romance


Am      F       Am     F                       Am    F         C
Rah-rah-ah-ah-ah, roma-roma-ma-ah,             ga-ga-ooh-la-la, want your bad romance
Am      F       Am     F                       Am    F         C
Rah-rah-ah-ah-ah, roma-roma-ma-ah,             ga-ga-ooh-la-la, want your bad romance


G
Walk   walk   fashion   baby,   Work   it,   move that bitch crazy
Walk   walk   fashion   baby,   Work   it,   move that bitch crazy
Walk   walk   fashion   baby,   Work   it,   move that bitch crazy
Walk   walk   passion   baby,   Work   it,   I'm a freak bitch baby




                                                                                        261
F              G                      Am
  I want your love and I want your revenge
               C                         F
  I want your love, I don’t wanna be friends
               G                    E
  J'veux ton amour et je veux ta revanche
               Am                        F
  J'veux ton amour, I don't wanna be friends
G                     Am      C
  I don't want be friends
                    F
I don't want be friends
G                        E   Am
  Want your bad romance,        want your bad romance!


F                       G
  I want your loving, I want your revenge
         Am                      C
You and me could write a bad romance
F                              G
  I want your loving, all your love is revenge
         E                       Am
You and me could write a bad romance


            F                G         Am                 C
Oh-oh-oh-oh-oooh, oh-oh-oh-oooh-oh-oh, caught in a bad romance
            F                G         E                  Am
Oh-oh-oh-oh-oooh, oh-oh-oh-oooh-oh-oh, caught in a bad romance


Am      F       Am     F           Am    F         C
Rah-rah-ah-ah-ah, roma-roma-ma-ah, ga-ga-ooh-la-la, want your bad romance




                                                                            262
Lauryn Hill - Can't Take My Eyes Of You

Capo on 2nd fret

                 D
You're just too good to be true
              Dmaj7
Can't take my eyes off you
              D7
You'd be like heaven to touch
        G
I wanna hold you so much
        Gm
At long last love has arrived
            D
And I thank God I'm alive
                 Em
You're just too good to be true
              D
Can't take my eyes off you


           D
Pardon the way that I stare
                   Dmaj7
There's nothing else to compare
                      D7
The thought of you leaves me weak
               G
There are no words left to speak
           Gm
But if you feel like I feel
             D
please let me know that it's real
                   Em
You're just too good to be true
                 D
Can't take my eyes off you


             Em         A
I need you baby if it's quite all right
             D               Bm                      Em
I need you baby to warm the lonely night I love you baby
         A                D                    Bm
Trust in me when I say: OK         (It's OK..)
           Em                  A
Oh pretty baby, don't let me down, I pray
           D                Bm
Oh pretty baby, now that I found you, stay
             Em                  A                 D        Bm
And let me love you, oh baby. Let me love you. Oh baby...




                                                                 263
                 D
You're just too good to be true
              Dmaj7
Can't take my eyes off you
              D7
You'd be like heaven to touch
        G
I wanna hold you so much
        Gm
At long last love has arrived
            D
And I thank God I'm alive
                 Em
You're just too good to be true
              D
Can't take my eyes off you


            Em          A
I need you baby if it's quite all right
            D               Bm                       Em
I need you baby to warm the lonely night I love you baby
              A                 D             Bm
Trust in me when I say: it's OK
          Em                  A
Oh pretty baby, don't let me down, I pray
          D                Bm
Oh pretty baby, now that I found you, stay
            Em                  A                  D        Bm
And let me love you, oh baby. Let me love you. Oh baby...


Repeat with slight variations...




                                                                 264
Les Trois Accords - L'eusses-tu cru

      Am    D     G     Em    F#    Bm    Gx    A
e|----0-----2-----3-----0-----2-----2-----3-----0----
B|----1-----3-----0-----0-----2-----3-----3-----2----
G|----2-----2-----0-----0-----3-----4-----4-----2----
D|----2-----0-----0-----2-----4-----4-----5-----2----
A|----0-----------2-----2-----4-----2-----5-----0----
E|----------------3-----0-----2-----------3----------


Am
    Am                    D
L'automne me semble étincelant
        G                   Em
La mort sasirait tel le vif
          Am                   D
Ton corps inerte sur le divan
          G                  F#         Bm
Me plonge dans un rêve intensif, in-ten-sif


      Bm                     Gx
Et je vois bleu, et je vois loin
          Em                     A
Je cours dans un grand champ de foin
         Bm                 Gx
Le vent épouse mon corps nu
         Em                          A
Mais je n'ai pas frette, l'eusses-tu cru


            Am                D
L'eusses-tu cru, je n'ai pas frette
         G                 Em
Quand je suis seul dans ma tête
           Am                   D
Je cueille des oeufs et des framboises
       G                  F#            Bm
Que je dispose sur une Chinoise, une Chinoise


      Bm                     Gx
Et je vois bleu, et je vois loin
          Em                      A
Je cours dans un grand champ de foin
         Bm                 Gx
Le vent épouse mon corps nu
         Em                          A
Mais je n'ai pas frette, l'eusses-tu cru
             Bm   Gx    Em      A
L'eusses-tu cru
             Bm   Gx    Em      A
L'eusses-tu cru


Bm   D     A     Bm
Bm   D     A     Bm



                                                        265
Bm         D     A              Bm
Voilà que prend fin ton sommeil
Bm       D            A          Dm
Mes yeux croisent tes billes de chouette
Bm             D A               Dm
Et tombent mes petits fruits vermeilles
Bm           D          A
L'eusses-tu cru, maintenant j'ai frette


         Bm                 Gx
Et j'ai vu bleu, et j'ai vu loin
      Em                          A
Je courais dans un grand champ de foin
         Bm                   Gx
Le vent reposait mon corps nu
      Em                            A
Je n'avais pas frette, l'eusses-tu cru
            Bm    Gx    Em     A
L'eusses-tu cru
            Bm    Gx    Em     A
L'eusses-tu cru


Bm    D     A     Bm
Bm    D     A     Bm
Bm    D     A     Bm
Bm    D     A     Bm   <- Final




                                           266
Live - Lightning Crashes

Riff 1:
    E                                 B
    1 - + - 2 - + - 3 - + - 4 - + -   1 - + - 2 - + - 3 - + - 4 - + -
e|--0-------x---0-----------0---x-x-|-2-------x---2-----------2---x-x-|
B|--0-------x---0-----------0---x-x-|-4-------x---4-----------4---x-x-|
G|o-1-------x---1-----------1---x-x-|-4-------x---4-----------4---x-x-|
D|o-2-------x---2-----------2---x-x-|-4-------x---4-----------4---x-x-|
A|--2-------x---2-----------2---x-x-|-2-------x---2-----------2---x-x-|
E|--0-------x---0-----------0---x-x-|---------x-----------------------|

   F#
   1 - + - 2 - + - 3 - + - 4 - + -   1 - + - 2 - + - 3 - + - 4 - + -
e|-2-------x---2-----------2---x-x-|-2-------x---2-----------2---x-x--|
B|-2-------x---2-----------2---x-x-|-2-------x---2-----------2---x-x--|
G|-3-------x---3-----------3---x-x-|-3-------x---3-----------3---x-x-o|
D|-4-------x---4-----------4---x-x-|-4-------x---4-----------4---x-x-o|
A|-4-------x---4-----------4---x-x-|-4-------x---4-----------4---x-x--|
E|-2-------x---2-----------2---x-x-|-2-------x---2-----------2---x-x--|


Riff 2:
    E               B                 F#
    1 - + - 2 - + - 3 - + - 4 - + -   1 - + - 2 - + - 3 - + - 4 - + -
e|--0-------0---x-x-2-------2---x-x-|-2-------x---2-----------2---x-x--|
B|--0-------0---x-x-4-------4---x-x-|-2-------x---2-----------2---x-x--|
G|o-1-------1---x-x-4-------4---x-x-|-3-------x---3-----------3---x-x-o|
D|o-2-------2---x-x-4-------4---x-x-|-4-------x---4-----------4---x-x-o|
A|--2-------2---x-x-2-------2---x-x-|-4-------x---4-----------4---x-x--|
E|--0-------0---x-x-----------------|-2-------x---2-----------2---x-x--|


Riff 3:
   G#m                               F#
   1 - + - 2 - + - 3 - + - 4 - + -   1 - + - 2 - + - 3 - + - 4 - + -
e|-4-------4-------------------------|-2-------2---2h4p2---------------|
B|-4-------4-------------------------|-2-------2-----------2-----------|
G|-4-------4-------------------------|-3-------3---------------3-------|
D|-6-------6-------------------------|-4-------4-------------------4---|
A|-6-------6-------------------------|-4-------4-----------------------|
E|-4-------4-------4h6---4-----2-----|-2-------2-----------------------|


Intro: Riff 1 <- 2x

E              B                         F#
  Lightning crashes, a new mother cries
E        B                         F
  Her placenta falls to the floor
E     B                         F#
        The angel opens her eyes,    the confusion sets in
E            B                               F#
  Before the doctor can even close the door




                                                                           267
E               B                       F#
  Lightning crashes, an old mother dies
E       B                          F#
  Her intentions fall to the floor
E     B                            F#
          The angel closes her eyes,  the confusion that was hers
E             B                         F#
  Belongs now to the baby down the hall

(Riff 2)
E      B        F#
Oh now feel it coming back again
E          B       F#
  Like a rolling thunder chasing the wind
E          B              F#
  Forces pulling from the center of the Earth again
E        B          F#
  I can feel it

(Riff 1)
E               B                        F#
  Lightning crashes, a new mother cries
E       B                             F#
  This moment she's been waiting for
E     B                           F#
          The angel opens her eyes,  pale blue colored eyes
E                     B                               F#
  Presents the circle and puts the glory out to hide, hide

(Riff 2)
E      B        F#
Oh now feel it coming back again
E          B       F#
  Like a rolling thunder chasing the wind
E          B               F#
  Forces pulling from the center of the Earth again
E        B          F#   E          B       F#
  I can feel it               I can feel it


(Riff 3)
G#m   F#    G#m   F#   G#m   F#m    E    F#

G#m   F#    G#m   F#m   E     F#
(avec des "Oh.... I.....")


E       B       F#
  I can feel it coming back again
E         B      F#
  Like a rolling thunder chasing the wind
E         B               F#
  Forces pulling from the center of the Earth again
E       B          F#
  I can feel it




                                                                    268
E       B       F#
  I can feel it coming back again
E         B      F#
  Like a rolling thunder chasing the wind
E         B               F#
  Forces pulling from the center of the Earth again
E       B          F#
  I can feel it

E         B       F#
    I can feel it coming back again
E           B      F#
    Like a rolling thunder chasing the wind
E           B               F#
    Forces pulling from the center of the Earth again
E         B          F#
    I can feel it
E         B          F#
    I can feel it
E         B          F#
    I can feel it

E         B         F# <- final




                                                        269
Louis Armstrong - What A Wonderful World

F#dim    xx1212
Eb6      x6554x
D7       x5453x


Intro:
F         Bb      F       Bb

       F          Am Bb        Am
I see trees of green, red roses too
Gm              F A7               Dm
   I see them bloom, for me and you
       Db              Gm       C7             F    F+ Bbmaj7       C7
And I think to myself, What a wonderful world
       F             Am Bb               Am
I see skies of blue        and clouds of white
Gm                 F       A7                    Dm
    The bright blessed day, the dark sacred night
Db                     Gm       C7             F     Bb   Bb    F
And I think to myself, what a wonderful world


    C7                        F
The colors of the rainbow, so pretty in the sky
    C7                   F
Are also on the faces of people goin' by
       Dm             C              Dm          C
I see friends shaking hands, saying, "How do you do?"
Dm             F#dim    Gm      C7
They're really saying, "I love you."


        F          Am Bb                Am
I hear babies cry,         I watch them grow
Gm                    F     A7               Dm
   They'll learn much more than I'll ever know
     Db                 Gm      C7              F   Eb6   D7
And I think to myself what a wonderful world

       Gm                C7                F
   Yes I think to myself, what a wonderful world.




                                                                         270
Louise Attaque - Je t'emmène au vent

     G#m    B    C#m    F#    A
e|----4-----2-----4-----2-----0----
B|----4-----4-----5-----2-----2----
G|----4-----4-----6-----3-----2----
D|----6-----4-----6-----4-----2----
A|----6-----2-----4-----4-----0----
E|----4-----------------2----------



Intro:

   Violon 1 (v1)                        Violon 2 (v2)                      v3
    1 - + - 2 - + - 3 - + - 4 - + -     1 - + - 2 - + - 3 - + - 4 - + -    1
e|--7-7-7-7-7-7-7-7-7-7-7-7-7-7-7-7--|--7-7-7-7-7-7-7-7-7-7-7-7-7-7-7-7--|---
B|--9-9-9-9-9-9-9-9-9-9-9-9-9-9-9-9--|--7-7-7-7-7-7-7-7-7-7-7-7-7-7-7-7--|-8-
G|o---------------------------------o|o---------------------------------o|---
D|o---------------------------------o|o---------------------------------o|---
A|-----------------------------------|-----------------------------------|---
E|-----------------------------------|-----------------------------------|---


Violon 1, violon 2, violon 1, violon 2

      V1                   V2          V1                  v2
Allez viens je t’emmène au vent, je t’emmène au-dessus des gens
         v1                                             v2               v3
Et je voudrais que tu te rappelles, notre amour est éternel et pas artificiel

                        G#m     B            G#m                B
Je voudrais que tu te ramènes devant, que tu sois là de temps en temps
         C#m                G#m                         F#               A
Et je voudrais que tu te rappelles, notre amour est éternel et pas artificiel

                       G#m            B            G#m                   B
Je voudrais que tu m’appelles plus souvent, que tu prennes parfois les devants
         C#m               G#m                          F#               A
Et je voudrais que tu te rappelles, notre amour est éternel et pas artificiel

                        G#m          B                  G#m                        B
Je voudrais que tu sois celle que j’entends, allez viens je t’emmène au-dessus des gens
         C#m                G#m                         F#           A
Et je voudrais que tu te rappelles, notre amourette éternelle, artificielle


Solo:

   A                                 G#m
   1 - + - 2 - + - 3 - + - 4 - + -   1 - + - 2 - + - 3 - + - 4   -    + -
e|---------------------------------|-------------11------11--11h12p12-9---|
B|-10---10---10----10---12---10----|-9------------------------------------|
G|---------------------------------|--------------------------------------|
D|-|__________|----|___________|---|--------------------------------------|
A|-------3---------------3---------|--------------------------------------|
E|---------------------------------|--------------------------------------|




                                                                                          271
   B                                 G#m
   1 - + - 2 - + - 3 - + - 4 - + -   1 - + - 2 - + - 3 - + - 4   -    + -
e|-11--------------9---------------|---------11--11------11--11h12p12-9---|
B|------12---12---------12---11----|-12-----------------------------------|
G|---------------------------------|--------------------------------------|
D|-|__________|----|__________|----|--------------------------------------|
A|-------3---------------3---------|--------------------------------------|
E|---------------------------------|--------------------------------------|

   B                                 C#m
   1 - + - 2 - + - 3 - + - 4 - + -   1 - + - 2 - + - 3 - + - 4 - + -
e|-11--------------9---------------|---------------------------------|
B|------12---12---------12---11----|-12---9-----9----12---9-----12---|
G|---------------------------------|---------------------------------|
D|-|__________|----|__________|----|-|__________|----|___________|---|
A|-------3---------------3---------|-------3---------------3---------|
E|---------------------------------|---------------------------------|

   G#m                               F#
   1 - + - 2 - + - 3 - + - 4 - + -   1 - + - 2 - + - 3 - + - 4 - + -
e|---------------------------------|---------------------------------|
B|-9----12----9----12---9----12----|-11----------11--12--12--9---9---|
G|---------------------------------|---------------------------------|
D|-|__________|----|__________|----|---------------------------------|
A|-------3---------------3---------|---------------------------------|
E|---------------------------------|---------------------------------|


   A                                 G#m
   1 - + - 2 - + - 3 - + - 4 - + -   1 - + - 2 - + - 3 - + - 4   -    + -
e|---------------------------------|-------------11------11--11h12p12-9---|
B|-10---10---10----10---12---10----|-9------------------------------------|
G|---------------------------------|--------------------------------------|
D|-|__________|----|___________|---|--------------------------------------|
A|-------3---------------3---------|--------------------------------------|
E|---------------------------------|--------------------------------------|

   B                                 G#m
   1 - + - 2 - + - 3 - + - 4 - + -   1 - + - 2 - + - 3 - + - 4   -    + -
e|-11--------------9---------------|---------11--11------11--11h12p12-9---|
B|------12---12---------12---11----|-12-----------------------------------|
G|---------------------------------|--------------------------------------|
D|-|__________|----|__________|----|--------------------------------------|
A|-------3---------------3---------|--------------------------------------|
E|---------------------------------|--------------------------------------|

   B                                 C#m
   1 - + - 2 - + - 3 - + - 4 - + -   1 - + - 2 - + - 3 - + - 4 - + -
e|-11--------------9---------------|---------------------------------|
B|------12---12---------12---11----|-12---9-----9----12---9-----12---|
G|---------------------------------|---------------------------------|
D|-|__________|----|__________|----|-|__________|----|___________|---|
A|-------3---------------3---------|-------3---------------3---------|
E|---------------------------------|---------------------------------|




                                                                              272
   G#m                               F#
   1 - + - 2 - + - 3 - + - 4 - + -   1 - + - 2 - + - 3 - + - 4 - + -
e|---------------------------------|---------------------------------|
B|-9----12----9----12---9----12----|-11----------11--12--12--9---9---|
G|---------------------------------|---------------------------------|
D|-|__________|----|__________|----|---------------------------------|
A|-------3---------------3---------|---------------------------------|
E|---------------------------------|---------------------------------|

   A
   1 - + - 2 - + - 3 - + - 4 - + -
e|---------------------------------|
B|-10------------------------------|
G|---------------------------------|
D|---------------------------------|
A|---------------------------------|
E|---------------------------------|


Sans accords:

Je voudrais que tu te ramènes devant, que tu sois là de temps en temps

Et je voudrais que tu te rappelles, notre amour est éternel et pas artificiel

Je voudrais que tu te ramènes devant, que tu sois là de temps en temps

Et je voudrais que tu te rappelles, notre amour est éternel et pas artificiel

                        G#m     B              G#m                B
Je voudrais que tu te ramènes devant, que   tu sois là de temps en temps
         C#m                G#m                           F#               A
Et je voudrais que tu te rappelles, notre   amour est éternel et pas artificiel
                        G#m     B              G#m                B
Je voudrais que tu te ramènes devant, que   tu sois là de temps en temps
         C#m                G#m                           F#               A
Et je voudrais que tu te rappelles, notre   amour est éternel et pas artificiel
                        G#m     B              G#m                B
Je voudrais que tu te ramènes devant, que   tu sois là de temps en temps
         C#m                G#m                           F#               A
Et je voudrais que tu te rappelles, notre   amour est éternel et pas artificiel
                        G#m     B              G#m                B
Je voudrais que tu te ramènes devant, que   tu sois là de temps en temps
         C#m                G#m                           F#           A
Et je voudrais que tu te rappelles, notre   amourette éternelle, artificielle

G#m <- Finale




                                                                                  273
Madonna - La Isla Bonita

Intro:

C#m      B      C#m
C#m      B      C#m
C#m      B      C#m
C#m      B      C#m


C#m           B             C#m
Last night I dreamt of San Pedro
A      C#m      E             B
  Just like I'd never gone, I knew the song
   C#m             B             C#m
A young girl with eyes like the desert
A    C#m             E             B        G#
  It all seems like yesterday, not far away


C#m            G#m
Tropical the island breeze
F#m             E
All of nature, wild and free
B                 F#m
This is where I long to be
          C#m
La isla bonita
               G#m
And when the samba played
F#m               E
  The sun would set so high
     B                    F#m
Ring through my ears and sting my eyes
                      C#m
Your Spanish lullaby


C#m      B      C#m
C#m      B      C#m


C#m          B            C#m
I fell in love with   San Pedro
A        C#m          E              B
  Warm wind carried   on the sea, he called to me
C#m    B       C#m
    Te dijo te amo
A    C#m              E                     B       G#
  I prayed that the   days would last, they went so fast




                                                           274
C#m            G#m
Tropical the island breeze
F#m             E
All of nature, wild and free
B                 F#m
This is where I long to be
          C#m
La isla bonita
               G#m
And when the samba played
F#m               E
  The sun would set so high
     B                    F#m
Ring through my ears and sting my eyes
                      C#m
Your Spanish lullaby


C#m     B       C#m
C#m     B       C#m


F#m       D             E             F#m
I want to be where the sun warms the sky
          F#m         D           E             E
When it's time for siesta you can watch them go by
F#m       D         E             F#m
Beautiful faces, no cares in this world
        F#m           D        E       G#     C#m
Where a girl loves a boy and a boy... loves a girl


C#m     B       C#m
A       C#m     E        B


C#m           B             C#m
Last night I dreamt of San Pedro
A    C#m            E              B        G#
  It all seems like yesterday, not far away


C#m            G#m
Tropical the island breeze
F#m             E
All of nature, wild and free
B                 F#m
This is where I long to be
          C#m
La isla bonita
               G#m
And when the samba played
F#m               E
  The sun would set so high
     B                    F#m
Ring through my ears and sting my eyes
                      C#m
Your Spanish lullaby


Repeat and fade out...
                                                     275
Manu Chao - Clandestino

    F#m                 Bm                  C#7
    1 - + - 2 - + -     1 - + - 2 - + -     1 - + - 2 - + -
e|------2-2-x-x-2-2--|------2-2-x-x-2-2--|-------------------|
B|------2-2-x-x-2-2--|------3-3-x-x-3-3--|------2-2-x-x-2-2--|
G|o-----2-2-x-x-2-2-o|o-----4-4-x-x-4-4-o|o-----4-4-x-x-4-4-o|
D|o-----4-4-x-x-4-4-o|o-----4-4-x-x-4-4-o|o-----3-3-x-x-3-3-o|
A|------4-4-x-x-4-4--|--2---2-2-x-x-2-2--|--4---4-4-x-x-4-4--|
E|--2---2-2-x-x-2-2--|-------------------|-------------------|


Intro: F#m   4x (4x times 4 beats)

  F#m                                Bm
Solo voy con mi pena, sola va mi condena
                 C#7                 F#m
Correr es mi destino para burlar la ley
      F#m                                Bm
Perdido en el corazon de la grande Babylon
                   C#7                    F#m
Me dicen el clandestino por no llevar papel


     F#m                                   Bm
Pa' una ciudad del norte yo me fui a trabajar
             C#7                    F#m
Mi vida la deje entre Ceuta y Gibraltar
       F#m                    Bm
Soy una raya en el mar, fantasma en la ciudad
   C#7                              F#m
Mi vida va prohibida, dice la autoridad


  F#m                                Bm
Solo voy con mi pena, sola va mi condena
                 C#7                 F#m
Correr es mi destino por no llevar papel
      F#m                                Bm
Perdido en el corazon de la grande Babylon
                   C#7                      F#m
Me dicen el clandestino, yo soy el quiebra ley


      C#7          F#m
Mano Negra clandestina
    C#7        F#m
Peruano clandestino
     C#7         F#m
Africano clandestino
      C#7     F#m
Marijuana ilegal


F#m




                                                                 276
  F#m                                Bm
Solo voy con mi pena, sola va mi condena
                 C#7                 F#m
Correr es mi destino para burlar la ley
      F#m                                Bm
Perdido en el corazon de la grande Babylon
                   C#7                    F#m
Me dicen el clandestino por no llevar papel


     C#7        F#m
Argelino clandestino
      C#7         F#m
Nigeriano clandestino
      C#7         F#m
Boliviano clandestino
      C#7      F#m
Mano Negra ilegal


F#m




                                                277
Manu Chao - Desaparecido

        E          Am         Dm
e|----0---12-----0---8------1---8----
B|----0---9------1---10-----3---8----
G|----1---9------2---9------2---8----
D|----2----------2----------0--------
A|----2----------0-------------------
E|----0------------------------------


Riff repeated with slight variations:

   1 - + - 2 - + - 3 - + - 4 - + -   1 - + - 2 - + - 3 - + - 4 - + -
e|-12----12----10--10----12----10--|-----------------------10--------|
B|---------------------------------|-13----13----13--13----------13--|
G|---------------------------------|---------------------------------|
D|---------------------------------|---------------------------------|
A|---------------------------------|---------------------------------|
E|---------------------------------|---------------------------------|

   1 - + - 2 - + - 3 - + - 4 - + -   1 - + - 2 - + - 3 - + - 4 - + -
e|---------------------------------|---------------------------------|
B|-12----12----12--12----13----12--|-10------------------------------|
G|---------------------------------|---------------------------------|
D|---------------------------------|---------------------------------|
A|---------------------------------|---------------------------------|
E|---------------------------------|---------------------------------|


Intro:

Am

                      E                          Am
Me llaman el desaparecido, cuando llega ya se ha ido
                        E                             Am
Volando vengo, volando voy deprisa deprisa a rumbo perdido
                          E                              Am
Cuando me buscan nunca estoy, cuando me encuentran yo no soy
                             E                         Am
El que está enfrente porque ya me fui corriendo más allá


                    E                          Am
Me dicen el desaparecido, fantasma que nunca está
                      E                        Am
Me dicen el desagradecido pero esa no es la verdad
                           Dm                       Am
Yo llevo en el cuerpo un dolor que no me deja respirar
                           E                              Am
Llevo en el cuerpo una condena que siempre me echa a caminar


                    E                                Am
Me dicen el desaparecido que cuando llega ya se ha   ido
                       E                             Am
Volando vengo, volando voy deprisa deprisa a rumbo   perdido



                                                                         278
E       Am      E       Am


                    E                          Am
Me dicen el desaparecido, fantasma que nunca está
                      E                        Am
Me dicen el desagradecido pero esa no es la verdad
                           Dm                        Am
Yo llevo en el cuerpo un motor que nunca deja de rolar
                        E                         Am
llevo en el alma un camino destinado a nunca llegar


E       Am      E       Am


                         Dm                              Am
Cuando me buscan nunca estoy, cuando me encuentran yo no soy
                             E                         Am
El que está enfrente porque ya me fui corriendo más allá


                    E                           Am
Me dicen el desaparecido, cuando llega ya se ha ido
                       E                            Am
Volando vengo, volando voy deprisa deprisa a rumbo perdido


              E            Am
Perdido en el siglo
              E            Am
Perdido en el siglo, siglo viente
              E               Am
(cuando llegare, cuando llegare)
              E            Am
rumbo al viente uno
                      E           Am
Me llaman el desaparecido, perdido en el siglo
                      E           Am
(cuando llegare, cuando llegare)
                      E           Am
Me llaman el desaparecido
                      E           Am
(cuando llegare, cuando llegare)


                    E                          Am
Me dicen el desaparecido, fantasma que nunca está
                      E                    Am
Me dicen el desagradecido, esa no es la verdad
                           Dm                        Am
Yo llevo en el cuerpo un motor que nunca deja de rolar
                        E                         Am
llevo en el alma un camino destinado a nunca llegar


                      E                            Am
Me llaman el desaparecido, e cuando llega ya se ha ido
                        E                              Am
Volando vengo, volando voy deprisa deprisa a rumbo perdido

                                                               279
Repeat 8x :
              E               Am
(cuando llegare, cuando llegare)




                                   280
Marc Déry - Libre

Riff principal:
   E             G#m/D#              A
   1 - + - 2 - + - 3 - + - 4 - + -   1 - + - 2 - + - 3 - + - 4 - + -
e|---------4-----4---4-4---4---4-4-|---------------5---5-5-----5-5---|
B|---------5-----5---4-4---4---4-4-|---------5---5-5---5-5-----5-5---|
G|---------4-----4---4-4---4---4-4-|---------6---6-6---6-6-----6-6---|
D|---------6-----6---4-4---4---4-4-|---------7---7-7---7-7-----7-7---|
A|-7---------------6---------------|---------7---7-7---7-7-----7-7---|
E|---------------------------------|-5-------------------------------|

Riff principal: 2x

E                   G#m/D#             A
  La fin du monde est à 7 heures Vient juste de commencer
E                      G#m/D#      A
  J'me suis fait venir du poulet, après j'pense qu'y a du hockey
E                       G#m/D#              A
  De toute façon j'ai ramassé deux films au dépanneur en passant
E                    G#m/D#              A
  Un film de cul, un film de guerre, ah ça ça faisait longtemps

       E   G#m/D#         A
Je suis libre, libre, ça doit ben faire faire 7 ans
E                           G#m/D#       A
  Que j'me suis pas r'trouvé tout seul devant ma télévision
       E   G#m/D#         A
Je suis libre, libre, ah ça ça faisait longtemps
E                  G#m/D#          A
  Comment j'te dirais ben ça, ça fait longtemps que j'fantasmais pour ça

E   G#m/D#   A

E                           G#m/D#        A
  Si tu fais rien viens faire un tour, on pourrait jouer d'la guitare
E                              G#m/D#         A
  Une couple de riffs, deux trois accords, on pourrait faire de l'art
E                   G#m/D#            A
  Après la game on sortira, on mettra le pied dehors
E                          G#m/D#             A
  Aller remettre mon 30 sous sur la table, montrer que je suis dans l'décor

       E   G#m/D#         A
Je suis libre, libre, ça doit ben faire 7 ans
E                           G#m/D#            A
  Que j'me suis pas r'trouvé tout seul, tout seul comme un grand garçon
       E   G#m/D#         A
Je suis libre, libre, ah ça ça faisait longtemps
E                  G#m/D#          A
  Comment j'te dirais ben ça, la liberté j'en voulais pas tant que ça

E   G#m/D#   A           E   G#m/D#   A
E   G#m/D#   A           E   G#m/D#   A




                                                                              281
E                      G#m/D#             A
  Si tu peux pas fais pas attention, j'connais ta situation
E                           G#m/D#          A
  En plus de ta blonde, y a ton enfant, ça doit aider à remplir le temps
E                             G#m/D#                 A
  Non, c'est correct c'est beau comme ça, de toute façon j'me lève demain d'bonne heure
E                          G#m/D#       A
  Ça sonne à'porte, c'est le livreur, ok j'te laisse à ton bonheur

       E   G#m/D#         A
Je suis libre, libre, ça doit ben faire 7 ans
E                           G#m/D#             A
  Que j'me suis pas r'trouvé tout seul de même
       E   G#m/D#         A
Je suis libre, libre, ah ça ça faisait longtemps
E                  G#m/D#          A
  Comment j'te dirais ben ça, la liberté j'en voulais pas tant que ça

E     G#m/D#   A

E                     G#m/D#             A                    E   G#m/D#   A...
    La fin du monde est à 7 heures vient juste de commencer




                                                                                          282
Marc Déry - Ma Révérence

Intro (et riff principal)

   Am                      Am7
   1 - - + - - 2 - - + - - 3 - - + - - 4 - - + - -
e|-------------0---------0-------------0-----0---0-|
B|-------------1---------1-------------1-----1---1-|
G|-2-----------2-----------0-----------0-----------|
D|-------------2-----------------------2-----------|
A|-------------------------------------------------|
E|-------------------------------------------------|

   F                       Am
   1 - - + - - 2 - - + - - 3 - - + - - 4 - - + - -
e|-------------1---------1-------------0-----0---0-|
B|-------------1---------1-------------1---------1-|
G|-------------2-----------------2-----------------|
D|-3-----------3-----------2-----------------------|
A|-------------------------------------------------|
E|-------------------------------------------------|

   Dm                      Dm/C
   1 - - + - - 2 - - + - - 3 - - + - - 4 - - + - -
e|-------------1---------1-------------1-----1---1-|
B|-------------3---------3-------------3-----3---3-|
G|-------------2-----------------------2-----------|
D|-0-----------------------------------------------|
A|-------------------------3-----------------------|
E|-------------------------------------------------|

   Dm/B                    F
   1 - - + - - 2 - - + - - 3 - - + - - 4 - - + - -
e|-------------1---------1-------------1-----1---1-|
B|-------------3---------3-------------1-----1---1-|
G|-------------2-----------------------2-----------|
D|-------------------------------------3-----------|
A|-2-----------------------------3-----------------|
E|-------------------------1-----------------------|


Am                      Am7
J'te donne un lift jusque chez vous
 F                             Am
Après on se dit adieu pour le vrai
Dm                        Dm/C
Y faudrait pas que ça dure longtemps
   Dm/B                 F
Ça fait encore plus mal, si j'me rappelle

Am                            Am7
Ça m'brise le coeur de te dire ça là
      F                              Am
Je le sais on avait un paquet de projets
Dm                   Dm/C
Le vieux pattern qui recommence
   Dm/B                     F
Le vieil adolescent qui tire sa révérence



                                                       283
Am       Am7       F     Am                    Dm     Dm/C       Dm/B        F
                                Sa révérence


Am               Am7
Tu diras salut à tes parents
          F             Am
T'embrasseras aussi Annabelle
Dm                     Dm/C
Dis-leur que si je les rappelle pas
     Dm/B                     F
Faut pas le prendre personnel

Am                          Am7
Comme j'me connais j'vas changer d'gang
             F                     Am
J'vas sauter dans une autre galère
Dm                 Dm/C
Je t'ai aimée plus que tu penses
     Dm/B                          F
J'voulais te l'dire avant de tirer ma révérence

Am       Am7       F     Am                    Dm     Dm/C       Dm/B        F
                                Ma révérence

1    +     2   +       3    +     4   +    1    +     2      +   3       +    4   +
Dm                     Dm/C                Dm/B                  /
Dm                                    Dm/C Dm/B                  /
Dm                     Dm/C                Dm/B                  /
Dm                                    Dm/C Dm/B

Am                Am7
On est arrivées on dirait
   F                 Am                   Dm   Dm/C       Dm/B       F       Am
Oublie pas ton gilet                                                         ^-----Finale




                                                                                            284
Marc Labrèche - Allons Tous À Jérusalem

      C     Am    Dm    G7    F     G     Cx   Amx    Em   Dmx
e|----0-----0-----1-----1-----1-----3-----8-----5-----7-----5----
B|----1-----1-----3-----0-----1-----3-----8-----5-----8-----6----
G|----0-----2-----2-----0-----2-----4-----9-----5-----9-----7----
D|----2-----2-----0-----0-----3-----5-----10----7-----9-----7----
A|----3-----0-----------2-----3-----5-----10----7-----7-----5----
E|----------------------3-----1-----3-----8-----5----------------


C      Am   Dm      G7
Allons tous à Jérusalem
    C          Am               Dm G7
Car Marie-Madeleine a la bouche pleine
    F       G           Cx
Des paroles de Jésus!


Amx                Em
Quand le viagra, miracle de la médecine
Amx                     Em
Dans le crayon des gars peut mettre de la mine
    Amx                Em
Les effets secondaires faut pas s'en soucier
      Dm                      G
Quand on a une verge en acier trempé!

Et là je dis!


C      Am   Dm      G7
Allons tous à Jérusalem
    C          Am               Dm G7
Car Marie-Madeleine a la bouche pleine
    F       G           Cx
Des paroles de Jésus!


Amx               Em
Quand un teenager dans son beau high school
Amx                Em
Sème la terreur en tirant sur la foule
Amx                  Em
Qui doit-on blâmer, est-ce la société?
    Dm                      G
Ou maman qui ne l'a pas allaité?

Et là je dis!


C      Am   Dm      G7
Allons tous à Jérusalem
    C          Am               Dm G7
Car Marie-Madeleine a la bouche pleine
    F       G           Cx
Des paroles de Jésus!

Une dernière fois!


                                                                    285
Am                  Em
Quand mon beau pays perd chaque jour son ouïe
Am                     Em
Parce qu'Helmut Lotti chante Napoli
   Am              Em
Je me dis nolisons pour ce baryton
   Dm                  G
Un bus pour Les Éboulements

Et là je dis!


C      Am   Dm      G7
Allons tous à Jérusalem
    C          Am               Dm G7
Car Marie-Madeleine a la bouche pleine
    F       G           Cx
Des paroles de Jésus!

C        Am   Dm            G7
Écoutons tous ce message buccal
  C                 Am          Dm G7
Avant que la prostituée ne le ravale
F        G       Cx
Dans son Sacré-coeur! (Où ça?)
F        G       Cx
Dans son Sacré-coeur! (Une dernière fois!)
F        G     C       Am    Dm      G7
Dans son Sacré-coeur!

C <= Final




                                                286
Metallica - Nothing Else Matters

Intro:

   1 2 3 4 5 6   1 2 3 4 5 6   1 2 3 4 5 6   1 2 3 4 5 6
e|-------0-----|-------0-----|-------0-----|-------0---7-|
B|-----0---0---|-----0---0---|-----0---0---|-----0---0---|
G|---0-------0-|---0-------0-|---0-------0-|---0---------|
D|-------------|-------------|-------------|-------------|
A|-------------|-------------|-------------|-------------|
E|-0-----------|-0-----------|-0-----------|-0-----------|


   1 + 2 + 3 + 4 + 5 + 6 +   1 + 2 + 3 + 4 + 5   + 6 + 7 + 8   9 +
e|-7-----------7p0---------|-0-------7---8---7h8p7-5---7---5/2-0---|
B|-----0-----------0-------|---------0---0-------------0-----------|
G|---------0-----------0---|-----0---------------------------------|
D|-------------------------|---------------------------------------|
A|-------------------------|---------------------------------------|
E|-0-----------------------|-0-------------------------------------|


   1 + 2 + 3 + 4 + 5 + 6 +   1 + 2 + 3 + 4 + 5 + 6 +
e|-------------2p0---------|-------------0---0---0---|
B|-5-------5-------5-------|---------5-------5---5---|
G|-----5---------------5---|-----5-----------5---5---|
D|-------------------------|-------------------------|
A|-0-----------------------|-0---------------0---2---|
E|-------------------------|-------------------------|


   1 + 2 + 3 + 4 + 5 + 6 +   1 + 2 + 3 + 4 +   5 + 6 +
e|-------------3p0---------|-------------0-5p0---------|
B|-5-------5-------5---5---|-7-------7---------7p0-0h5-|
G|-5-----5---5-------5-5---|-7-----7---7---------------|
D|-------------------------|---------------------------|
A|-3-------------------3---|-5-------------------------|
E|-------------------------|---------------------------|

       natural harmonics
   1   2   3   4   5   6     1 2 3 4 5 6   1 2 3 4 5 6   1 2 3 4 5 6
e|------------<12>---------|-------0-----|-------0-----|-------0-----|
B|--------<12>---- 0-------|-----0---0---|-----0---0---|-----0---0---|
G|----<12>-------------0---|---0-------0-|---0-------0-|---0-------0-|
D|-------------------------|-------------|-------------|-------------|
A|-------------------------|-------------|-------------|-------------|
E|-0-----------------------|-0-----------|-0-----------|-0-----------|


   1 + 2 + 3 + 4 + 5 + 6 +   1 + 2 + 3 + 4 + 5 + 6 +
e|-------------7-----------|-------------------------|
B|-------------8-----------|---------7-----------5---|
G|-----------9-------------|---------7-----------5---|
D|---------9---------------|-----7-----------5-------|
A|-------7-----------------|-5-----------3-----------|
E|-0-----------------------|-------------------------|




                                                                         287
   1 + 2 + 3 + 4 + 5 + 6 +   1 + 2 + 3 + 4 + 5 + 6 +
e|-------------7-----------|-------------------------|
B|-------------8-----------|---------7-----------5---|
G|-----------9-------------|---------7-----------5---|
D|---------9---------------|-----7-----------5-------|
A|-------7-----------------|-5-----------3-----------|
E|-0-----------------------|-------------------------|


   1 + 2 + 3 + 4 + 5 + 6 +   1 + 2 + 3 + 4 + 5 + 6 +
e|-------------7-----------|-----5-----------3-------|
B|-------------8-----------|-------7-----------5-----|
G|---------9---------------|---------7-----------5---|
D|-----------0-------------|-----7-----------5-------|
A|-------7-----------------|-5-----------3-----------|
E|-0-----------------------|-------------------------|


   1 + 2 + 3 + 4 + 5 + 6 +   1 + 2 + 3 + 4 + 5 + 6 +
e|-----3-----------2-------|--------------0-----------|
B|-------3-----------4-----|----------0-------0-------|
G|---------4-----------2---|------0---------------0---|
D|---------5-------4-------|-7p5p4--------------------|
A|-----5-------2-----------|--------------------------|
E|-3-----------------------|-0------------------------|
                             ^_3_^

   1 2 3 4 5 6
e|-------0-----|
B|-----0---0---|
G|---0-------0-|
D|-------------|
A|-------------|
E|-0-----------|



Couplet:
   Em                        D           C
   1 + 2 + 3 + 4 + 5 + 6 +   1 + 2 + 3 + 4 + 5 + 6 +
e|-------------3-----0-----|-2-----3-----0-----------|
B|---------0-----------0---|---------3-------3-------|
G|-----0-----------0-----0-|-----------0-------0-----|
D|-------------------------|-0---0-------------------|
A|-------------------------|-------------3-----------|
E|-0-----------------------|---------------------3-2-|

   Em                        D           C
   1 + 2 + 3 + 4 + 5 + 6 +   1 + 2 + 3 + 4 + 5 + 6 +
e|-------------3-----0-----|-2-----------------------|
B|---------0-----------0---|-------3-----3-----3-----|
G|-----0-----------0-----0-|-----2---2p0-----0-------|
D|-------------------------|-0-----------------------|
A|-------------------------|-------------3-----------|
E|-0-----------------------|---------------------3-2-|




                                                          288
   Em                        D           C
   1 + 2 + 3 + 4 + 5 + 6 +   1 + 2 + 3 + 4 + 5 + 6 +
e|-------------3-----0-----|-2-----3-----3-----------|
B|---------0-----------0---|---------3-------3-------|
G|-----0-----------0-----0-|-----------0---------0---|
D|-------------------------|-0---0-------------------|
A|-------------------------|-------------3-----------|
E|-0-----------------------|-------------------------|

   G           B7
   1 + 2 + 3 + 4 + 5 + 6 +    1 + 2 + 3 + 4 + 5 + 6 +
e|---------3---2-----2-----|--0----------0------------|
B|---------3---0-------0---|----------0-------0-------|
G|-----0-------2---------2-|o-----0---------------0---|
D|-------------------------|o-------------------------|
A|-------------2---2-------|--------------------------|
E|-3-----------------------|--0-----------------------|

   Em
   1 + 2 + 3 + 4 + 5 + 6 +
e|-------------0------------|
B|---------0-------0--------|
G|-----0-------------------o|
D|-------------------------o|
A|--------------------------|
E|-0-------------------3-2--|



Em                     D    C
   So close no matter how far
Em                       D          C
   Couldn't be much more from the heart
Em                  D         C
   Forever trusting who we are
G      B7           Em
   And nothing else matters


Em                D             C
   Never opened myself this way
Em                            D   C
   Life is ours, we live it our way
Em                          D     C
   All these words I don't just say
G      B7           Em
   And nothing else matters


Em                      D      C
   Trust I seek and I find in you
Em                   D         C
   Every day for us something new
Em                 D           C
   Open mind for a different view
G      B7            Em
   And nothing else matters




                                                          289
C    A5   D                          C    A5   D
           Never cared for what they do
                           C   A5 D
Never cared for what they know
      Em
But I know


Em                     D    C
   So close no matter how far
Em                       D          C
   Couldn't be much more from the heart
Em                  D         C
   Forever trusting who we are
G      B7           Em
   And nothing else matters


C    A5   D                          C    A5   D
           Never cared for what they do
                           C   A5 D
Never cared for what they know
      Em
But I know


Interlude:

   1 2 3 4 5 6   1 2 3 4 5 6   1 2 3 4 5 6   1 2 3 4 5 6
e|-12----14----|-15----17----|-8-----8-----|-------8-----|
B|---12----12--|---12----12--|---5-----5---|-----5---5---|
G|-------------|-------------|-----5-----5-|---5-------5-|
D|-------------|-------------|-------------|-------------|
A|-------------|-------------|-------------|-0-----------|
E|-------------|-------------|-------------|-------------|

   1 2 3 4 5 6   1 2 3 4 5 6   1 + 2 3 4 + 5 6   1 2 3 4 5 6
e|-0-------0---|-0-------0---|-0h7-----7p0-----|-------0-----|
B|---1-------1-|---3-------3-|-----0-------0---|-----0---0---|
G|-----0-------|-----2-------|-------0-------0-|---0-------0-|
D|-------------|-------------|-----------------|-------------|
A|-------------|-------------|-----------------|-------------|
E|-------------|-------------|-----------------|-0-----------|

   1 2 3 4 5 6   1 2 3 4 5 6   1 2 3 4 5 6   1 2 3 4 5 6
e|-12----14----|-15----17----|-8-----8-----|-------8-----|
B|---12----12--|---12----12--|---5-----5---|-----5---5---|
G|-------------|-------------|-----5-----5-|---5-------5-|
D|-------------|-------------|-------------|-------------|
A|-------------|-------------|-------------|-0-----------|
E|-------------|-------------|-------------|-------------|

   1 2 3 4 5 6   1 2 3 4 5 6   1 + 2 3 4 + 5 6   1 2 3 4 5 6
e|-0-------0---|-0-------0---|-0h7-----7p0-----|-------0-----|
B|---1-------1-|---3-------3-|-----0-------0---|-----0---0---|
G|-----0-------|-----2-------|-------0-------0-|---0-------0-|
D|-------------|-------------|-----------------|-------------|
A|-------------|-------------|-----------------|-------------|
E|-------------|-------------|-----------------|-0-----------|


                                                                 290
Em                D             C
   Never opened myself this way
Em                            D   C
   Life is ours, we live it our way
Em                          D     C
   All these words I don't just say
G      B7           Em
   And nothing else matters


Em                      D      C
   Trust I seek and I find in you
Em                   D         C
   Every day for us something new
Em                 D           C
   Open mind for a different view
G      B7            Em
   And nothing else matters


C    A5     D                            C  A5   D
              Never cared for what they say
                                C   A5 D
Never     cared for games they play
                         C   A5 D
Never     cared for what do
                              C    A5 D
Never     cared for what they know
          Em
And I     know, yeaaah!



Riff principal 1x pendant le solo



Em                    D     C
   So close no matter how far
Em                       D          C
   Couldn't be much more from the heart
Em                  D         C
   Forever trusting who we are
G      B7                  Em
   And nothing else matters


Finale:

    1 2 3 4 5 6   1 2 3 4 5 6
e|--0-----0-----|-------0---7-|
B|------0---0---|-----0---0---|
G|o---0-------0-|---0---------|
D|o-------------|-------------|
A|--------------|-------------|
E|--0-----------|-0-----------|




                                                     291
   1 + 2 + 3 + 4 + 5 + 6 +   1 + 2 + 3 + 4 + 5   + 6 + 7 + 8   9 +
e|-7-----------7p0---------|-0-------7---8---7h8p7-5---7---5/2-0----|
B|-----0-----------0-------|---------0---0-------------0------------|
G|---------0-----------0---|-----0---------------------------------o|
D|-------------------------|---------------------------------------o|
A|-------------------------|----------------------------------------|
E|-0-----------------------|-0--------------------------------------|

Fade out...




                                                                        292
Metallica - The Unforgiven

    Am
    1 - + - 2 - + - 3 - + - 4 - + -
e|-----------------------------------|
B|--0-------0-----0-----0-----1------|
G|o-----2-----2-----2-----2-----2---o|   4x
D|o-------2-----2-----2-----2-----2-o|
A|--0--------------------------------|
E|-----------------------------------|

    Am
    1 - + - 2 - + - 3 - + - 4 - + -   1 - + - 2 - + - 3 - + - 4 - + -
e|----------------------------------|----------------------------------|
B|--0-------0-----0-----1-----1-----|-0-------0-----1-----1-----1------|
G|o-----2-----2-----2-----2-----2---|-----2-----2-----2-----2-----2---o|    2x
D|o-------2-----2-----2-----2-----2-|-------2-----2-----2-----2-----2-o|
A|--0-------------------------------|-0--------------------------------|
E|----------------------------------|----------------------------------|

While the two last repetitions:
    Am
    1 - + - 2 - + - 3 - + - 4 - + -   1 - + - 2 - + - 3 - + - 4 - + -
e|----------------------------------|----------------------------------|
B|----------------------------------|----------------------------------|
G|o---------2---4--4h5------5-4-2---|---------2---4--4h5------5-2-----o|
D|o---------------------------------|---------------------------------o|
A|----------------------------------|----------------------------------|
E|----------------------------------|----------------------------------|


   Am         C/B C                  G               Em
   1 - + - 2 - + - 3 - + - 4 - + -   1 - + - 2 - + - 3 - + - 4 - + -
e|---------------------------------|---------------------------------|
B|---------------------------------|---------------------------------|
G|---------2---4--4h5------5-----5-|-5-4--------2h4----------2--2h4--|
D|---------------------------------|-----5-----------5---------------|
A|---------------------------------|---------------------------------|
E|---------------------------------|---------------------------------|

   Am         C/B C                  G               E                 Am
   1 - + - 2 - + - 3 - + - 4 - + -   1 - + - 2 - + - 3 - + - 4 - + -   1
e|---------------------------------|---------------------------------|---
B|------------------------3h5----5-|-5-3-----------------------------|---
G|-2-------2---4--4h5--------------|-----4------2h4--1---1---4-1-2-4-|-2-
D|---------------------------------|---------------------------------|---
A|---------------------------------|---------------------------------|---
E|---------------------------------|---------------------------------|---


   Am
   1 - + - 2 - + - 3 - + - 4 - + -   1 - + - 2 - + - 3 - + - 4 - + -
e|---------------------------------|---------------------------------|
B|-0-------0-----0-----0-----1-----|-0-------0-----0-----0-----1-----|
G|-----2-----2-----2-----2-----2---|-----2-----2-----2-----2---------|
D|-------2-----2-----2-----2-----2-|-------2-----2-----2-----2-------|
A|-0-------------------------------|-0-------------------------------|
E|---------------------------------|---------------------------------|



                                                                                 293
A5               C5  E5
New blood joins this earth
    D               A5
And quickly he's subdued
                          C5 E5
Through constant pained disgrace
           D                   A5
The young boy learns their rules
                    C5       E5
With time the child draws in
      D                  A5
This whipping boy done wrong
                 C5 E5
Deprived of all his thoughts
         D                  Am      C/B       C
The young man strugggles on and on he's known
D C            G
A vow unto his own
      Am     C/B       C     D
That never from this day
    C                     G       E
His will they'll take away


Am             C                  G
  What I've felt, what I've known
       Em                           Am
Never shined through in what I've shown
         C          G
Never be, never see
       E                   Am
Won't see what might have been
             C                  G
What I've felt, what I've known
       Em                           Am
Never shined through in what I've shown
           C          G
Never free, never me
     E                  Am
So I dub thee unforgiven


   Am
   1 - + - 2 - + - 3 - + - 4 - + -   1 - + - 2 - + - 3 - + - 4 - + -
e|---------------------------------|---------------------------------|
B|-0-------0-----0-----0-----1-----|-0-------0-----0-----0-----1-----|
G|-----2-----2-----2-----2-----2---|-----2-----2-----2-----2---------|
D|-------2-----2-----2-----2-----2-|-------2-----2-----2-----2-------|
A|-0-------------------------------|-0-------------------------------|
E|---------------------------------|---------------------------------|




                                                                         294
        A5     C5     E5
They dedicate their lives
    D              A5
To running all of his
                     C5    E5
He tries to please them all
        D            A5
This bitter man he is
                      C5 E5
Throughout his life the same
        D             A5
He's battled constantly
                  C5 E5
This fight he cannot win
  D               Am       C/B       C        D
A tired man they see no longer cares
      C                 G
The old man then prepares
    Am     C/B    C D
To die regretfully
        C                 G E
That old man here is me, yeah


Am             C                  G
  What I've felt, what I've known
       Em                           Am
Never shined through in what I've shown
         C          G
Never be, never see
       E                   Am
Won't see what might have been
             C                  G
What I've felt, what I've known
       Em                           Am
Never shined through in what I've shown
           C          G
Never free, never me
     E                  Am
So I dub thee unforgiven


    Am
    1 - + - 2 - + - 3 - + - 4 - + -
e|-----------------------------------|
B|--0-------0-----0-----0-----1------|
G|o-----2-----2-----2-----2-----2---o|    8x
D|o-------2-----2-----2-----2-----2-o|
A|--0--------------------------------|
E|-----------------------------------|



A5          C5   E5               D               A5
A5          C5   E5               D               A5
A5          C5   E5               D               A5
A5          C5   E5               D               Am   C/B C   D
C       G        Am   C/B C   D   C       G       E




                                                                   295
Am             C                    G
  What I've felt, what I've known
       Em                             Am
Never shined through in what I've shown
         C          G
Never be, never see
       E                     Am
Won't see what might have been
             C                    G
What I've felt, what I've known
       Em                             Am
Never shined through in what I've shown
           C          G
Never free, never me
     E                  Am C    G   E
So I dub thee unforgiven


Am   C   G    E


Am          C              G
   Never free,    never me
      E                  Am C      G    E
So I dub thee     unforgiven
Am                C                    G
   You labeled    me, I'll label   you
      E                  Am C      G     E
So I dub thee     unforgiven
Am          C              G
   Never free,    never me
      E                  Am C      G    E
So I dub thee     unforgiven
Am                C                    G
   You labeled    me, I'll label   you
      E                  Am C      G     E
So I dub thee     unforgiven


Fade out...




                                             296
Michel Fugain - Une Belle Histoire

       Am    Dm    G     C     F   Esus4   E     Dm    E7    Em
e|-----0-----1-----3-----0-----1-----0-----0-----1-----0-----0---------------
B|-----1-----3-----0-----1-----1-----0-----0-----3-----3-----0---------------
G|-----2-----2-----0-----0-----2-----2-----1-----2-----1-----0--------------
D|-----2-----0-----0-----2-----3-----2-----2-----0-----0-----2--------------
A|-----0-----------2-----3-----3-----2-----2-----------2-----2--------------
E|-----------------3-----------1-----0-----0-----------0-----0--------------

exemple de rythme:
   Am              Dm
   1 - + - 2 - + - 3 - + - 4 - + -
e|-0-------0---0-1---1-1-1-1-1-1-1-|
B|-1-------1---1-3---3-3-3-3-3-3-3-|
G|-2-------2---2-2---2-2-2-2-2-2-2-|
D|-2-------2---2-0---------0-------|    ...
A|-0-------0---0-------------------|
E|---------------------------------|

Intro: Am   Dm    G    C     F       Esus4    E

Am                    Dm      G            C
   C'est un beau roman, c'est une belle histoire
F                Dm E
   C'est une romance d'aujourd'hui
Am                     Dm   G                 C
   Il rentrait chez lui, là-haut vers le brouillard
F                 Dm     E          E7
   Elle descendait dans le midi, le midi
Am                    Dm      G          C
   Ils se sont trouvés au bord du chemin
F
   Sur l'autoroute des vacances

C'était sans doute un jour de chance
Am                    Dm   G            C
   Ils avaient le ciel à portée de main
F
   Un cadeau de la providence
                               Em         F
Alors pourquoi penser au lendemain

Am                  Dm          G            C
   Ils se sont cachés dans un grand champ de blé
F                     Dm      E
   Se laissant porter par les courants
Am                 Dm       G           C
   Se sont racontés leur vies qui commençaient
F                        Dm       E          E7
   Ils n'étaient encore que des enfants, des enfants
Am                        Dm        G      C
   Qui s'étaient trouvés au bord du chemin
F
   Sur l'autoroute des vacances




                                                                                297
C'était sans doute un jour de chance
Am                     Dm       G               C
Qui cueillirent le ciel au creux de leurs mains
F
Comme on cueille la providence
                           Em      F
Refusant de penser au lendemain

Am                     Dm     G            C
   C'est un beau roman, c'est une belle histoire
F                 Dm E
   C'est une romance d'aujourd'hui
Am                      Dm  G                 C
   Il rentrait chez lui, là-haut vers le brouillard
F                 Dm      E         E7
   Elle descendait dans le midi, le midi
Am                   Dm       G         C
   Ils se sont quittés au bord du matin
F
   Sur l'autoroute des vacances

C'était fini le jour de chance
Am                    Dm     G            C
   Ils reprirent alors chacun leur chemin
F                                                       Em     F
   Saluèrent la providence en se faisant un signe de la main

Am                  Dm   G                  C
  Il rentra chez lui, là-haut vers le brouillard
F                   Dm E               Am
  Elle est descendue là-bas dans le midi
                   Dm      G              C
C'est un beau roman, c'est une belle histoire
F                Dm E             Am <- final
  C'est une romance d'aujourd'hui




                                                                   298
Miles Davis - 'Round Midnight

  Ebm7           Cm7b5             Fm7b5           Bb7alt
   1 - + - 2 - + - 3 - + - 4 - + -   1 - + - 2 - + - 3 - + - 4 - + -
e|-6-------------------------------|-7-------------------------------|
B|-7---------------7---------------|-9-----------------------7-------|
G|-6---------------8---------------|-8-----------------------7-------|
D|---------------8-8---------------|-----------------8---6---6-------|
A|-6---------6-8---9---------------|-6-----------5-6-----------------|
E|---------6-------------------6---|-------------------------6-------|

  Ebm7            Ab7               Bm7      E7     Bbm7    Eb7
   1 - + - 2 - + - 3 - + - 4 - + -   1 - + - 2 - + - 3 - + - 4 - + -
e|-6-------------------------------|---------------------------------|
B|-7---------------4---------------|---------------------------------|
G|-6-------------6-5---------------|-7-------7-------6-------6-------|
D|-------------8---4---------------|-7---4---6-------6---3---5-------|
A|-6-------6-9-----------------6---|-------5-7-------------4-6-------|
E|-----------------4---------------|-7---------------6---------------|

  Abm7            Db7               Ebm7            Ab7
   1 - + - 2 - + - 3 - + - 4 - + -   1 - + - 2 - + - 3 - + - 4 - + -
e|-4-------------------------------|---------------------------------|
B|-4-------------7-6---------------|-7---------------4---------------|
G|-4-----------8---4---------------|-6---------------5---------------|
D|-4-------6-9-----6-----------9---|-8-------------------6---------3-|
A|-----------------4---------------|-6-------6--5--4-3-----------6---|
E|-4-------------------------------|-----------------4---------------|

   B7                               Bb7
   1 - + - 2 - + - 3 - + - 4 - + -   1 - + - 2 - + - 3 - + - 4 - + -
e|---------------------------------|---------------------------------|
B|---------------------------------|---------6-----------------------|
G|-2-------------------------------|---------7-----------------------|
D|-4--4--4-4--3--1-3---------------|---------6-----------------------|
A|-2---------------------------6---|-5-------------------------------|
E|---------------------------------|-----6---------------------------|



  Ebm7           Cm7b5             Fm7b5           Bb7alt
   1 - + - 2 - + - 3 - + - 4 - + -   1 - + - 2 - + - 3 - + - 4 - + -
e|-6-------------------------------|-7-------------------------------|
B|-7---------------7---------------|-9-----------------------7-------|
G|-6---------------8---------------|-8-----------------------7-------|
D|---------------8-8---------------|-----------------8---6---6-------|
A|-6---------6-8---9---------------|-6-----------5-6-----------------|
E|---------6-------------------6---|-------------------------6-------|

  Ebm7            Ab7               Bm7      E7     Bbm7    Eb7
   1 - + - 2 - + - 3 - + - 4 - + -   1 - + - 2 - + - 3 - + - 4 - + -
e|-6-------------------------------|---------------------------------|
B|-7---------------4---------------|---------------------------------|
G|-6-------------6-5---------------|-7-------7-------6-------6-------|
D|-------------8---4---------------|-7---4---6-------6---3---5-------|
A|-6-------6-9-----------------6---|-------5-7-------------4-6-------|
E|-----------------4---------------|-7---------------6---------------|




                                                                         299
  Abm7            Db7               Ebm7            Ab7
   1 - + - 2 - + - 3 - + - 4 - + -   1 - + - 2 - + - 3 - + - 4 - + -
e|-4-------------------------------|---------------------------------|
B|-4-------------7-6---------------|-7---------------4---------------|
G|-4-----------8---4---------------|-6---------------5---------------|
D|-4-------6-9-----6-----------9---|-8-------------------6---------3-|
A|-----------------4---------------|-6-------6--5--4-3-----------6---|
E|-4-------------------------------|-----------------4---------------|

   B7              Bb7              Ebm7
   1 - + - 2 - + - 3 - + - 4 - + -   1 - + - 2 - + - 3 - + - 4 - + -
e|---------------------------------|---------------------------------|
B|---------------------------------|---------7-----------------------|
G|-2---------------1---------------|---------6-----------------------|
D|-4-------3---1---3---------------|-----4-----------------------3---|
A|-2---------------1-------6---4---|-6-----------------------6-------|
E|---------------------------------|---------------------------------|



 Cm7b5            F7b9              Bb7
   1 - + - 2 - + - 3 - + - 4 - + -   1 - + - 2 - + - 3 - + - 4 - + -
e|---------------------------------|---------------------------------|
B|---------------------------------|---------------------------------|
G|-3---------------8---------------|-----3---3-----------------------|
D|-4-------3-------7---------------|---------3-------------------3---|
A|-3-----------6---8-----------6---|-5-------1---------------6-------|
E|---------------------------------|---------------------------------|

 Cm7b5            F7b9              Bb7
   1 - + - 2 - + - 3 - + - 4 - + -   1 - + - 2 - + - 3 - + - 4 - + -
e|---------------------------------|---------------------------------|
B|---------------------------------|---------6-----------------------|
G|-3---------------8---------------|---------7---------------3-------|
D|-4-------3-------7---------------|---------6-----------------------|
A|-3-----------6---8-----------6---|-5-------------------------------|
E|---------------------------------|-----6---------------------------|

  Abm7    Db7    Gbmaj7             Cb7             Bb7
   1 - + - 2 - + - 3 - + - 4 - + -   1 - + - 2 - + - 3 - + - 4 - + -
e|---------------------------------|---------------------------------|
B|---------------------------------|---------------------------------|
G|-4-----------4---3-----------3---|-1---------------1-----------3---|
D|-4-------3-------3---------------|-4-------4-------3---------------|
A|---------4-----------------------|-2---------------1---------------|
E|-4---------------2---------------|---------------------------------|

  Eb7             Db7               Cb7             Bb7
   1 - + - 2 - + - 3 - + - 4 - + -   1 - + - 2 - + - 3 - + - 4 - + -
e|---------------------------------|---------------------------------|
B|-4---4---4-------2---2---2-------|-0-------------------------------|
G|-6---------------4---------------|-2-------------------------------|
D|-5---------------3---------------|-1---------------8---6-----------|
A|-6---------------4---------------|-2-------6---5---8-------7---5---|
E|---------------------------------|-----------------6---------------|




                                                                         300
  Ebm7           Cm7b5             Fm7b5           Bb7alt
   1 - + - 2 - + - 3 - + - 4 - + -   1 - + - 2 - + - 3 - + - 4 - + -
e|-6-------------------------------|-7-------------------------------|
B|-7---------------7---------------|-9-----------------------7-------|
G|-6---------------8---------------|-8-----------------------7-------|
D|---------------8-8---------------|-----------------8---6---6-------|
A|-6---------6-8---9---------------|-6-----------5-6-----------------|
E|---------6-------------------6---|-------------------------6-------|

  Ebm7            Ab7               Bm7      E7     Bbm7    Eb7
   1 - + - 2 - + - 3 - + - 4 - + -   1 - + - 2 - + - 3 - + - 4 - + -
e|-6-------------------------------|---------------------------------|
B|-7---------------4---------------|---------------------------------|
G|-6-------------6-5---------------|-7-------7-------6-------6-------|
D|-------------8---4---------------|-7---4---6-------6---3---5-------|
A|-6-------6-9-----------------6---|-------5-7-------------4-6-------|
E|-----------------4---------------|-7---------------6---------------|

  Abm7            Db7               Ebm7            Ab7
   1 - + - 2 - + - 3 - + - 4 - + -   1 - + - 2 - + - 3 - + - 4 - + -
e|-4-------------------------------|---------------------------------|
B|-4-------------7-6---------------|-7---------------4---------------|
G|-4-----------8---4---------------|-6---------------5---------------|
D|-4-------6-9-----6-----------9---|-8-------------------6---------3-|
A|-----------------4---------------|-6-------6--5--4-3-----------6---|
E|-4-------------------------------|-----------------4---------------|

   B7              Bb7              Ebm
   1 - + - 2 - + - 3 - + - 4 - + -   1 - + - 2 - + - 3 - + - 4 - + -
e|---------------------------------|-6-------------------------------|
B|---------------------------------|-7-------------------------------|
G|-2---------------1---------------|-8-------------------------------|
D|-4-------3---1---3---------------|-8-------------------------------|
A|-2---------------1-------6---4---|-6-------------------------------|
E|---------------------------------|---------------------------------|




                                                                         301
Miles Davis - So What

Shuffle beat

   1 + 2 + 3 + 4 +   1 + 2 + 3 + 4 +   1 + 2 + 3 + 4 +   1 + 2 + 3 + 4 +
e|-----------------|---------7-----5-|-----------------|---------7-----5-|
B|-------------5---|---------8-----6-|-------------5---|---------8-----6-|
G|---------5-7---5-|-7-------7-----5-|---------5-7---5-|-7-------7-----5-|
D|-----7-9---------|---------7-----5-|-----7-9---------|---7-----7-----5-|
A|---5-------------|-----------------|---5-------------|-----------------|
E|-----------------|-----------------|-----------------|-----------------|

   1 + 2 + 3 + 4 +   1 + 2 + 3 + 4 +   1 + 2 + 3 + 4 +   1 + 2 + 3 + 4 +
e|-----------------|---------7-----5-|-----------------|---------7-----5-|
B|-------------5---|---------8-----6-|--/5-----5---5---|-5-------8-----6-|
G|---------5-7---5-|-7-------7-----5-|-----------------|---7-----7-----5-|
D|-----7-9---------|---------7-----5-|-----------------|---------7-----5-|
A|---5-------------|-----------------|-----------------|-----------------|
E|-----------------|-----------------|-----------------|-----------------|

^------------------------jouer 2 fois ces 8 mesures----------------------^


   1 + 2 + 3 + 4 +   1 + 2 + 3 + 4 +   1 + 2 + 3 + 4 +   1 + 2 + 3 + 4 +
e|-----------------|---------8-----6-|-----------------|---------8-----6-|
B|-------------6---|---------9-----7-|-------------6---|---------9-----7-|
G|---------6-8---6-|-8-------8-----6-|---------6-8---6-|-8-------8-----6-|
D|-----8-10--------|---------8-----6-|-----8-10--------|---8-----8-----6-|
A|---6-------------|-----------------|---6-------------|-----------------|
E|-----------------|-----------------|-----------------|-----------------|

   1 + 2 + 3 + 4 +   1 + 2 + 3 + 4 +   1 + 2 + 3 + 4 +   1 + 2 + 3 + 4 +
e|-----------------|---------8-----6-|-----------------|---------8-----6-|
B|-------------6---|---------9-----7-|--/6-----6---6---|-6-------9-----7-|
G|---------6-8---6-|-8-------8-----6-|-----------------|---8-----8-----6-|
D|-----8-10--------|---------8-----6-|-----------------|---------8-----6-|
A|---6-------------|-----------------|-----------------|-----------------|
E|-----------------|-----------------|-----------------|-----------------|

   1 + 2 + 3 + 4 +   1 + 2 + 3 + 4 +   1 + 2 + 3 + 4 +   1 + 2 + 3 + 4 +
e|-----------------|---------7-----5-|-----------------|---------7-----5-|
B|-------------5---|---------8-----6-|-------------5---|---------8-----6-|
G|---------5-7---5-|-7-------7-----5-|---------5-7---5-|-7-------7-----5-|
D|-----7-9---------|---------7-----5-|-----7-9---------|---7-----7-----5-|
A|---5-------------|-----------------|---5-------------|-----------------|
E|-----------------|-----------------|-----------------|-----------------|

   1 + 2 + 3 + 4 +   1 + 2 + 3 + 4 +   1 + 2 + 3 + 4 +   1 + 2 + 3 + 4 +
e|-----------------|---------7-----5-|-----------------|---------7-----5-|
B|-------------5---|---------8-----6-|--/5-----5---5---|-5-------8-----6-|
G|---------5-7---5-|-7-------7-----5-|-----------------|---7-----7-----5-|
D|-----7-9---------|---------7-----5-|-----------------|---------7-----5-|
A|---5-------------|-----------------|-----------------|-----------------|
E|-----------------|-----------------|-----------------|-----------------|




                                                                             302
Mononc Serge - Fourrer

Riff 1
    1 - + - 2 - + - 3 - + - 4 - + -   1 - + - 2 - + - 3 - + - 4 - + -
e|----------------------------------|----------------------------------|
B|----------------------------------|----------------------------------|
G|o---------------------------------|---------------------------------o|
D|o---------------------------------|---------------------------------o|
A|--------------------------2-------|-----------------------------2----|
E|--2h4---4-4---x-x-2h4---------x-x-|-2h4---4-4---x-x-2h4-4---0--------|



Riff 1
Inspecteur, je me mets à table

J'avoue tout: je suis coupable
Riff 1
Laissez vos amis constables

Fesser sur mon être lamentable
         Riff 1
J'ai une urgence, j'ai besoin d'une ambulance

J'ai besoin d'une sirène qui crie
        Riff 1
J'ai la fièvre, j'ai besoin d'une paire de lèvres

Où mon gland puisse cracher du blanc


          Riff 1
Parce que fourrer c'est une fatalité

C'est ma finalité, c'est ma raison d'être
   Riff 1
Ce mot de sept lettres qui veut dire se mettre

J'en suis l'esclave soumis, je lui obéis


G#5


Que la Fédération des femmes

Et la Sainte Vierge me pardonnent

J'ai tout essayé pour rester dans les bornes

De la bonne pensée socialement acceptée

Mais rien à faire: je ne suis qu'une machine à fourrer
      A#5
Quand je vois une femme passer

J'aimerais bien penser




                                                                           303
Ah! La noble créature que Dieu a créée!
         G#5
Mais non! Je spotte ses tetons, j'imagine sa plotte

Dans ses p'tites culottes

Je veux tirer ma botte
C#5
Pitié Mgr Turcotte
B5
Sortez votre goupillon
E5
Chassez le démon
      A5
De ce pauvre garçon

         G#5
Qui veut fourrer, c'est une fatalité

C'est ma finalité, c'est ma raison d'être
   F5
Ce mot de sept lettres qui veut dire se mettre
              E5
J'en suis l'esclave soumis, je lui obéis


C5       D#5    C5         A#5
Fourrer!
C5       D#5    C5         A#5
Fourrer!
C5       D#5    C5         A#5
Fourrer!
C5       D#5    C5         A#5
Fourrer!


F5
Un jour chu venu pour fourrer Jacinthe Durand

Mais malheureusement, chu venu avant dans mes sous-vêtements

J'ai passé l'reste d'la soirée à licher sa plotte
                              F#5
A m'a jamais rappelé, j'étais pas assez hot

Depuis ce jour, quand je me crosse, je pense à elle
                                  F5
Je revois son vagin, ses seins et han!

Le rouleau de Cotonnelle

Honteux, ridicule, je m'essuie

J'ai besoin d'une lobotomie ou d'une amie mouillée

B5   A#5 A5    G#5   G#5
J'ai be - soin de    fourrer


S'a rue Saint-Denis l'été est dur, à chaque coin d'rue c'est la torture

                                                                          304
Mes yeux brillent, c'est plein de p'tites filles
      B5      C#5             G#5
y'en a pas gros qu'j'ai pas l'goût d'fourrer

Mais faut faire semblant de penser à autre chose

À politique, aux grandes causes
C#5
Aux handicapés, aux millions d'affamés
B5
Mais entre mes deux oreilles
                      E5        A5
Il n'y a qu'une idée: c'est l'idée de

G#5
Fourrer, c'est une absurdité

C'est une calamité, c'est ma raison d'être
   F5
Ce mot de sept lettres qui veut dire se mettre
              E5
J'en suis l'esclave soumis, je lui obéis


Riff 1
Fourrer!
Riff 1
Fourrer!


    Riff 1
Un jour j'irai dans le Grand Nord
Là où oá¹ il n'y a que des renards
           Riff 1
Tout sera paix, tout sera mort
     B5           C#5
Au sommet de la terre
      G#5
Sur l'île d'Ellesmere
    Riff 1
Aux confins de la terre de Baffin
                                                 Riff 1
Pas de Stéphanie, de Fanny, de Mélanie, pas d'Isabelle

M'as-tu être bin sans elles
B5     C#5            G#5
Pas de plotte dans le permafrost

Riff 1
Pas de touffe dans la toundra

Là-bas dans la froidure

M'a arrêter de faire dur
Riff 1
M'a faire d'la philosophie pis d'la littérature
                                 Riff 1
M'a être bin, loin, pas de pitoune nulle part




                                                          305
Quand j'aurai d'l'argent m'a aller dans l'nord
                       Riff 1
J'aurai plus de remord

Les couilles gelées pour l'éternité

Je n'aurai plus jamais envie de fourrer


Plus jamais envie de... FOURRER

G#5             G#5
G#5     B5      C#5     F#5
G#5             B5      F#5
G#5




                                                 306
Mononc serge - Les Grosses Torches Acadiennes

                 Exemple de rythme
     F c Bb      1 - + - 2 - + - 3 - + - 4 - + -
e|---1--0--1---|-----1---x-1-1-1-----1---x-1-1-1-|
B|---1--1--3---|-----1---x-1-1-1-----1---x-1-1-1-|
G|---2--0--3---|-----2---x-x-x-x-----2---x-x-x-x-|
D|---3--2--3---|-----3---x-x-x-x-----3---x-x-x-x-|
A|---3--3--1---|-----3---x-x-x-x-----3---x-x-x-x-|
E|---1---------|-1---1-----------1---1-----------|


Intro:
F

                                                  C
À la déportation des Acadiens les Anglais ont eu peur
                                                                 F
Qu'avec trop d'gros dans leur bateau ils coulent dans les profondeurs
                                                                        Bb
Ils n'ont donc qu'amené les p'tites femmes, c'tait plus sécuritaire de même
    F                      C
Laissant sur le rivage par crainte du naufrage toutes les grosses torches acadiennes

F                                                C
Après le grand dérangement les grosses ont procréé
                                                                              F
Donnant naissance à de belles p'tites grosses qui elles-mêmes ont proliféré
                                                               Bb
Si bien qu'après deux siècles et quelque grâce à la magie des gênes
   F                    C                                           F
On trouve encore un nombre record de ces belles grosses torches acadiennes

Bb
Sur la plage de Parlee Beach l'été les touristes viennent
      F                                                       C
Y'ont pas besoin de prendre le bateau pour observer les cachalots
      F                     Bb             F                   C
Ti-pot et Thibaudeau me l'avaient bien dit si tu aimes les baleines
        F                Bb                    F       C F
Oublie Tadoussac, emmène ton pack-sac sur la péninsule acadienne


F    F
Bb   F
C    F

F                                                     C
L'autre soir j'ai rencontré une grosse torche de Bouctouche
                                                               F
J'vous dirai pas quel morceau de moi que j'lui ai mis dans la bouche
                                                               Bb
Ça la changeait des poutines rapées des pogos pis des hot-chicken
        F                  C                                                 F
Qui sont les habitants les plus fréquents des bouches des grosses torches acadiennes




                                                                                       307
Bb
Malgré ce que j'ai dit avant ces baquesses je les aime
      F                                                                           C
Elles aiment la vie, l'été elles font de l'ombre, l'hiver elles réchauffent ta cabane
      F                       Bb          F                 C
Quand qu'les belles filles de Montréal ne voudront plus de moi
        F                        Bb                    F             C F
Ça m'fera pas de peine de me saucer la graine dans une grosse torche acadienne


F    F
Bb   F
C    F




                                                                                        308
Mr Big - To Be With You

Intro:
   1 + 2 + 3 + 4 +   1 + 2 + 3 + 4 +
e|-x-------x-------|-x---x---x-------|
B|-x-------x-------|-x---x---x-------|
G|-x-------x-------|-x---x---x-------|
D|-x-------x-------|-x---x---x-------|
A|-x-------x-------|-x---x---x-------|
E|-x-------x-------|-x---x---x---12\-|


C#m                E
    Hold on little girl
Asus2                   E
Show me what he's done to you
C#m                E
  Stand up little girl
  Asus2                   E
A broken heart can't be that bad
      Asus2                 E
When it's through, it's through
Asus2                       E
Fate will twist the both of you
    D
So come on baby come on over
B
Let me be the one to show you


E                 A      B           E
I'm the one who wants to be with you
E             A        B           E
Deep inside I hope you feel it too
E           A       B                E
Waited on a line of greens and blues
E               A      B           E
Just to be the next to be with you


C#m               E
    Build up your confidence
    Asus2            E
So you can be on top for once
C#m          E
wake up who cares about
Asus2                  E
Little boys that talk too much
      Asus2          E
I've seen it all go down
      Asus2               E
Your game of love was all rained out
    D
So come on baby, come on over
B
Let me be the one to hold you




                                         309
E                 A      B           E
I'm the one who wants to be with you
E             A        B           E
Deep inside I hope you feel it too
E           A       B                E
Waited on a line of greens and blues
E               A      B           E
Just to be the next to be with you


Asus2                       C#m
Why be alone when we can be together baby
G
You can make my life worthwhile

And I can make you start to smile


E   A   B   E
E   A   B   E
E   A   B   E
E   A   B   E



      Asus2             E
When it's through, it's through
Asus2                   E
Fate will twist the both of you
   D
So come on baby come on over
B
Let me be the one to show you


G                 C      D           G
I'm the one who wants to be with you
G             C        D           G
Deep inside I hope you feel it too
G           C       D                G
Waited on a line of greens and blues
G               C      D           G
Just to be the next to be with you


E                 A      B           E
I'm the one who wants to be with you
E             A        B           E
Deep inside I hope you feel it too
E           A       B                E
Waited on a line of greens and blues
E               A      B           E
Just to be the next to be with you

E              A       B           E
Just to be the next to be with you




                                            310
Nirvana - Where Did You Sleep Last Night

Intro: (with 0-3-4 on the E string between E and A for the intro) (B/G is B/F# with a bend)

E       A   G   B   B/G E
E       A   G   B   B/G E


   E                     A     G
My girl, my girl, don't lie to me
         B             B/G          E
Tell me where did you sleep last night
       E                              A             G
In the pines, in the pines where the sun don't ever shine
         B         B/G         E
I would shiver the whole night through


   E                    A         G
My girl, my girl, where will you go
     B              B/G       E
I'm going where the cold wind blows
       E                             A              G
In the pines, in the pines where the sun don't ever shine
         B         B/G          E
I would shiver the whole night through


    E      (B)         A       G
Her husband was a hard working man
      B      B/G       E
Just about a mile from here
    E                    A       G
His head was found in a driving wheel
        B    B/G       E
But his body never was found


   E                     A     G
My girl, my girl, don't lie to me
         B             B/G          E
Tell me where did you sleep last night
       E                              A             G
In the pines, in the pines where the sun don't ever shine
         B         B/G         E
I would shiver the whole night through


E       A   G   B   B/G E
E       A   G   B   B/G E




                                                                                         311
(Softly)
   E                    A         G
My girl, my girl, where will you go
     B              B/G       E
I'm going where the cold wind blows
       E                             A              G
In the pines, in the pines where the sun don't ever shine
         B         B/G          E
I would shiver the whole night through


(Loudly)
   E                     A     G
My girl, my girl, don't lie to me
         B             B/G          E
Tell me where did you sleep last night
       E                              A             G
In the pines, in the pines where the sun don't ever shine
         B         B/G         E
I would shiver the whole night through


   E                    A         G
My girl, my girl, where will you go
     B              B/G         E
I'm going where the cold wind blows
         E                    A       G
In the pines, the pines, the sun, the shine
       B        B/G         E
I'll shiver the whole night through


E       A   G   B   B/G E
E       A   G   B   B/G E <- final




                                                            312
No Doubt - Don't Speak

Intro + first verse:

   Cm                                                    Gm      Fm
   1 + 2 + 3 + 4 +   1 + 2 + 3 + 4 +   1 + 2 + 3 + 4 +   1 + 2 + 3 + 4 +
e|-----------------|-----------------|-----------------|-----------------|
B|-4---4---4---4---|-4---4---4---4---|-4---4---4---4---|-3---3---1---1---|
G|-5---5---5---5---|-5---5---5---5---|-5---5---5---5---|-3---3---1---1---|
D|---5---5---5---5-|---5---5---5---5-|---5---5---5---5-|---5---5---3---3-|
A|-----------------|-----------------|-----------------|-----------------|
E|-----------------|-----------------|-----------------|-----------------|

   Bb      Gm        Fm      Bb        Cm      Gm        Fm      Bb
   1 + 2 + 3 + 4 +   1 + 2 + 3 + 4 +   1 + 2 + 3 + 4 +   1 + 2 + 3 + 4 +
e|-----------------|-----------------|-----------------|-----------------|
B|-3---3---3---3---|-1---1---3---3---|-4---4---3---3---|-1---1---3---3---|
G|-3---3---3---3---|-1---1---3---3---|-5---5---3---3---|-1---1---3---3---|
D|---3---3---5---5-|---3---3---3---3-|---5---5---5---5-|---3---3---3---3-|
A|-----------------|-----------------|-----------------|-----------------|
E|-----------------|-----------------|-----------------|-----------------|

   Gm      Cm        Fm      Bb        Cm      Gm        Fm      Bb
   1 + 2 + 3 + 4 +   1 + 2 + 3 + 4 +   1 + 2 + 3 + 4 +   1 + 2 + 3 + 4 +
e|-----------------|-----------------|-----------------|-----------------|
B|-3---3---4---4---|-1---1---3---3---|-4---4---3---3---|-1---1---3---3---|
G|-3---3---5---5---|-1---1---3---3---|-5---5---3---3---|-1---1---3---3---|
D|---5---5---5---5-|---3---3---3---3-|---5---5---5---5-|---3---3---3---3-|
A|-----------------|-----------------|-----------------|-----------------|
E|-----------------|-----------------|-----------------|-----------------|

   Eb      Bbx       C
   1 + 2 + 3 + 4 +   1 + 2 + 3 + 4 +
e|-----------------|-----------------|
B|-8---8---6---6---|-5---------------|
G|-8---8---7---7---|-5---------------|
D|---8---8---8---8-|-5---------------|
A|-----------------|-3---------------|
E|-----------------|-----------------|


Cm          Gm               Fm
You and me, we used to be together
Bb          Gm     Fm     Bb
Everyday together always
Cm         Gm          Fm             Bb
I really feel that I'm losing my best friend
   Gm                 Cm        Fm     Bb
I can't believe this could be the end
    Cm         Gm         Fm          Bb
It looks as though you're letting go
      Eb               Bbx               C
And if it's real well I don't want to know




                                                                             313
Fm              Bbm                    Eb
Don't speak, I know just what you're saying
  C                 Bbm          C                 Fm      C#    C
So please stop explaining, don't tell me cause it hurts
Fm              Bbm                Eb
Don't speak, I know what you're thinking
C                   Bbm          C                 Fm      Bbm       Eb
I don't need your reasons, don't tell me cause it hurts


     Cm             Gm              Fm
Our memories, well they can be inviting
              Bb           Gm    Fm        Bb
But some are altogether mighty frightening
 Cm     Gm   Fm             Bb
As we die, both you and I
Eb                     Bbx              C
   With my head in my hands I sit and cry


Fm              Bbm                     Eb
Don't speak, I know just what you're saying
 C                  Bbm          C                 Fm        C# C
So please stop explaining, don't tell me cause it hurts (no, no, no)
Fm              Bbm                Eb
Don't speak, I know what you're thinking
    C                   Bbm           C                Fm    Eb   C       Ab
And I don't need your reasons, don't tell me cause it hurts


Db        Ab            B        Gb             A Db      Eb     Db5 Eb5 Eb5 Eb5 Ab
It's all ending I gotta stop pretending who we are


Cm      Gm        Fm      Bb
Cm      Gm        Fm      Bb
Cm      Gm        Fm      Bb
Gm      Cm        Fm


Cm         Gm   Fm            Bb            Fm   Bb
You and me      I can see us dying, are we?


Fm              Bbm                     Eb
Don't speak, I know just what you're saying
 C                  Bbm          C                 Fm     C# C
So please stop explaining, don't tell me cause it hurts (no, no)
Fm              Bbm                Eb
Don't speak, I know what you're thinking
    C                   Bbm           C                Fm          C#       C
And I don't need your reasons, don't tell me cause it hurts, don't tell me cause it hurts




                                                                                            314
Fm   Bbm                Eb
    I know what you're saying
 C                  Bbm       C           Fm          C#     C
So please stop explaining, don't speak, don't speak, don't speak
 Fm    Bbm               Eb
Oh I know what you're thinking
     C                  Bbm                    C
And I don't need your reasons. I know you're good
                 Fm                  C#    C
   I know you're good, I know you're real good


  Fm Bbm     Eb
Oh, la la la la
C           Bbm C       Fm    C# C
la la la la la, don't, don't, uh-huh
Fm          Bbm     Eb          C
Hush, hush darlin', hush, hush darlin'
Bbm               C                         Fm     C#   C
Hush, hush, don't tell me tell me cause it hurts
Fm          Bbm     Eb          C
Hush, hush darlin', hush, hush darlin'
Bbm               C                         Fm     C#   C
Hush, hush, don't tell me tell me cause it hurts


Fade out...




                                                                   315
Oasis - Don't Look Back In Anger

       C     F     G     Am    E     Fm E7/G#
e|-----0-----1-----3-----0-----0-----1-----0-----|
B|-----1-----1-----0-----1-----0-----1-----0-----|
G|-----0-----2-----0-----2-----1-----1-----1-----|
D|-----2-----3-----0-----2-----2-----3-----0-----|
A|-----3-----3-----2-----0-----2-----3-----2-----|
E|-----------1-----3-----------0-----1-----4-----|


Exemple de rythme:
   C               G
   1 - + - 2 - + - 3 - + - 4 - + -
e|-0-------0---0-0-3-------3---3-3-|
B|-1-------1---1-1-0-------0---0-0-|
G|-0-------0---0-0-0-------0---0-0-|
D|-2-------2---2-2-0-------0---0-0-|     ...
A|-3-------3---3-3-2-------2---2-2-|
E|-----------------3-------3---3-3-|


Intro: C    F    C    F

C                G                Am
Slip inside the eye of your mind
          E                    F     G
Don't you know you might find
                       C      Am G
A better place to play
C             G                Am
You said that you'd never been
            E                        F     G
But all the things that you've seen
                 C         Am G
Slowly fade away

F                    Fm             C
   So I start a revolution from my bed
         F                     Fm             C
Cos you said the brains I had went to my head
F                 Fm              C
Step outside the summertime's in bloom
G
Stand up beside the fireplace
E7/G#
Take that look from off your face
Am                 G         F              G
you ain't ever gonna burn my heart ouuuuuuuuuut

C G               Am     E                  F
So Sally can wait, she knows it's too late
           G             C    Am G
As we're walking on by
    C    G            Am E                    F
Her soul slides away,      but don't look back in anger
G                  C   G   Am   E   F   G   C   Am G
  I heard you say



                                                          316
C              G                  Am
Take me to the place where you go
       E           F G                   C      Am G
Where nobody knows      if it's night or day
C                     G                 Am
Please don't put your life in the hands
     E                  F   G                        C       Am   G
Of a rock and roll band       who'll throw it all away

F                   Fm                 C
  Gonna start a revolution from my bed
        F                     Fm         C
Cos you said the brains I had went to my head
F                Fm                C
Step outside the summertime's in bloom
G
Stand up beside the fireplace
E7/G#
Take that look from off your face
    Am                 G         F              G
Cos you ain't ever gonna burn my heart ouuuuuuuuuut

C G               Am      E                   F
So Sally can wait, she    knows it's too late
           G              C     Am G
As she's walking on by
   C    G            Am   E                    F
My soul slides away,        but don't look back in anger
G                 C       Am G
  I heard you say

F    Fm   C
F    Fm   C
F    Fm   C
G         E7/G#
Am   G    F
G

C G               Am       E                  F
So Sally can wait, she knows it's too late
            G              C     Am G
As we're walking on by
     C    G            Am E                      F
Her soul slides away,         but don't look back in anger
G                 C    Am G
  I heard you say
C G               Am       E                  F
So Sally can wait, she knows it's too late
            G            C      Am G
As she's walking on by
   C    G             Am E                       F
My soul slides away,         but don't look back in anger
               G
Don't look back in anger,
                  C    G     Am   E   F   G
  I heard you say
                     C <- final
At least not today




                                                                      317
Oasis - Wonderwall

Capo on 2nd fret

     Em7     G    Dsus4 A7sus4 Cadd9 Dsus4/F#
e|----3------3------3------3------3------3----
B|----3------3------3------3------3------3----
G|----0------0------2------0------0------2----
D|----2------0------0------2------2------0----
A|----2------2-------------0------3------x----
E|----0------3---------------------------2----


Intro:
Em7      G         Dsus4   A7sus4
Em7      G         Dsus4   A7sus4
Em7      G         Dsus4   A7sus4
Em7      G         Dsus4   A7sus4


Em7        G                             Dsus4                   A7sus4
  Today is gonna be the day that they're gonna throw it back to you
Em7           G                    Dsus4                A7sus4
  By now you should've somehow realized what you gotta do
Em7                  G       Dsus4             A7sus4
I don't believe that anybody feels the way I do
           Cadd9   Dsus4   A7sus4
About you now


Em7               G                              Dsus4                   A7sus4
    Backbeat, the word is on the street that the fire in your heart is out
Em7                   G                         Dsus4               A7sus4
    I'm sure you've heard it all before but you never really had a doubt
Em7                     G     Dsus4            A7sus4
I don't believe that anybody feels the way I do
           Em7      G      Dsus4    A7sus4
about you now


      Cadd9            Dsus4            Em7
And all the roads we have to walk are winding
      Cadd9               Dsus4              Em7
And all the lights that lead us there are blinding
Cadd9            Dsus4
There are many things that I
       G      Dsus4/F# Em7         G           A7sus4
would like to say to     you but I don't know how


        Cadd9 Em7    G     Em7                    Cadd9    Em7     G
Because maybe        You're gonna be the one that saves me
    Em7    Cadd9 Em7    G           Em7          Cadd9 Em7     G   Em7<-hold
And after all             You're my wonderwall


A7sus4




                                                                                  318
Em7         G                            Dsus4                   A7sus4
  Today was gonna be the day but they'll never throw it back to you
Em7           G                    Dsus4                    A7sus4
  By now you should've somehow realized what you're not to do
Em7                  G       Dsus4             A7sus4
I don't believe that anybody feels the way I do about you now


Em7     G       Dsus4   A7sus4


      Cadd9            Dsus4            Em7
And all the roads we have to walk are winding
      Cadd9               Dsus4              Em7
And all the lights that lead us there are blinding
Cadd9            Dsus4
There are many things that I
       G      Dsus4/F# Em7         G           A7sus4
would like to say to     you but I don't know how


      Cadd9 Em7    G      Em7                    Cadd9   Em7       G
I say maybe        You're gonna be the one that saves me
    Em7     Cadd9 Em7   G            Em7          Cadd9 Em7    G       Em7
And after all              You're my wonderwall
      Cadd9 Em7    G      Em7                    Cadd9   Em7       G
I say maybe        You're gonna be the one that saves me
    Em7     Cadd9 Em7   G            Em7          Cadd9 Em7    G       Em7
And after all              You're my wonderwall
      Cadd9 Em7    G      Em7                    Cadd9   Em7       G
I say maybe        You're gonna be the one that saves me
        Em7                   Cadd9 Em7    G
You're gonna be the one that saves me
        Em7                   Cadd9 Em7    G    Em7
You're gonna be the one that saves me


Cadd9   Em7      G       Em7
Cadd9   Em7      G       Em7
Cadd9   Em7      G       Em7
Cadd9   Em7      G       Em7 <-final




                                                                             319
Offspring - Self Esteem

Rythme des couplets:
    A5               F5               C5              G5
    1 - + - 2 - + - 3 - + - 4 - + -   1 - + - 2 - + - 3 - + - 4 - + -
e|----------------------------------|----------------------------------|
B|----------------------------------|----------------------------------|
G|o---------------------------------|---------------------------------o|
D|o---------------------------------|---------------------------------o|
A|--------------------------8-8-8-8-|----------------------------------|
E|--5-5-5-5-5-------x---x-x---------|-8-8-8-8-8-------x---x-x-3-3-3-3--|

Pendant la deuxième moitié de chaque couplet, changer les notes
seules pour des power chords

Rythme du refrain:
    A5              F5                C5              G5
    1 - + - 2 - + - 3 - + - 4 - + -   1 - + - 2 - + - 3 - + - 4 - + -
e|----------------------------------|----------------------------------|
B|----------------------------------|----------------------------------|
G|o---------------------10--10--x-x-|---------------------------------o|
D|o-7-------7---x-x-x-x-10--10--x-x-|-10------10--x-x-x-x-5---5---x-x-o|
A|--7-------7---x-x-x-x-8---8---x-x-|-10------10--x-x-x-x-5---5---x-x--|
E|--5-------5---x-x-x-x-------------|-8-------8---x-x-x-x-3---3---x-x--|


Lala lalala lala lalala

Rythme du refrain 2x, suivi de F5 (1ère frette 6e corde), G5

Rythme du couplet 2x

A5              F5              C5                 G5
   I wrote her off for the tenth time today
A5                 F5        C5                    G5
   And practiced all the things I would say
A5                    F5 C5               G5
   But she came over, I lost my nerve
A5             F5         C5                 G5
   I took her back and made her dessert
A5       F5    C5                G5
   Now I know I'm being used
A5          F5                  C5              G5
   That's okay man cause I like the abuse
A5       F5            C5              G5
   Now I know she's playing with me
A5          F5                      C5              G5
   That's okay cause I've got no self esteem


Refrain     4x




                                                                           320
A5         F5        C5             G5
   We make plans to go out at night
A5             F5       C5                 G5
   I wait till 2 then I turn out the light
A5            F5        C5             G5
   All this rejection's got me so low
A5                F5        C5                G5
   If she keep it up I just might tell her so


Refrain   4x


D5            Bb5   F5           C5
   When she's saying that she wants only me
D5        Bb5             F5                    C5
   Then I wonder why she sleeps with my friends
D5            Bb5   F5          C5
   When she's saying that I'm like a disease
D5        Bb5              F5              C5
   Then I wonder how much more I can spend
D5        Bb5   F5                 C5
   Well I guess I should stick up for myself
D5       Bb5                 F5            C5
   But I really think it's better this way
D5              Bb5    C5             G5            F5            G5
   The more you suffer The more it shows you really care; Right ? Yeah...


Rythme du couplet 2x

A5              F5    C5             G5
   Now I'll relate this a little bit
A5                 F5            C5           G5
   That happens more than I'd like to admit
A5          F5           C5             G5
   Late at night she knocks on my door
A5        F5          C5            G5
   Drunk again and looking to score
A5       F5     C5              G5
   Now I know I should say no
A5                        F5            C5        G5
   But that's kind of hard when she's ready to go
A5           F5          C5          G5
   I may be dumb But I'm not a dweeb
A5              F5           C5            G5
   I'm just a sucker with no self esteem


Refrain   4x




                                                                            321
D5            Bb5   F5           C5
   When she's saying that she wants only me
D5        Bb5             F5                    C5
   Then I wonder why she sleeps with my friends
D5            Bb5   F5          C5
   When she's saying that I'm like a disease
D5        Bb5              F5              C5
   Then I wonder how much more I can spend
D5        Bb5   F5                 C5
   Well I guess I should stick up for myself
D5       Bb5                 F5            C5
   But I really think it's better this way
D5              Bb5    C5             G5            F5            G5        A5
   The more you suffer The more it shows you really care; Right ? Yeah...




                                                                                 322
Opus - Life Is Life

Am   Dm    G
Am   Dm    G


Am   Dm    G
   Nanananana
Am   Dm    G
   Nanananana
Am   Dm    G
   Nanananana
Am   Dm    G
   Nanananana


Am      Dm    G
Life (nanananana)
        Am       Dm    G
Life is life (nanananana)
                 Am      Dm   G
Labadab dab dab life (nanananana)
 Am             Dm   G
Liiiiiiiife (nanananana)


          Am           F       Dm            G
When we all give the power, we all give the best
       Am          F           Dm               G
Every minute of an hour, don't think about the rest
          Am         F         Dm          G
And you all get the power, you all get the best
    Am            Dm              F               G
And everyone gets everything and every song everybody sings


           Am      Dm   G
That it's life (nanananana)
        Am      Dm    G
Life is life (nanananana)
        Am      Dm    G
Life is life (nanananana)
                Am      Dm    G
Labadab dab dab life (nanananana)


        C                Dm          Gsus4 G
Life is life    when we all feel the power
        C            Dm               Gsus4 G
Life is life    come on, stand up and dance
        C                  Dm           Gsus4 G
Life is life    when the feeling of the people
        Am              Dm            G
Life is life    is the feeling of the band




                                                              323
          Am           F       Dm            G
When we all give the power, we all give the best
       Am          F           Dm               G
Every minute of an hour, don't think about the rest
          Am         F         Dm          G
And you all get the power, you all get the best
    Am            Dm              F               G
And everyone gets everything and every song everybody sings


           Am      Dm   G
That it's life (nanananana)
        Am      Dm    G
Life is life (nanananana)
                Am      Dm    G
Labadab dab dab life (nanananana)
        Am      Dm    G
Life is life (nanananana)


Am      Dm    G
Life (nanananana)
Am      Dm    G
      nanananana
Am      Dm    G
      nanananana
Am      Dm    G
      nanananana


Am      Dm    G
Life (nanananana)
        Am      Dm    G
Life is life (nanananana)
                Am      Dm    G
Labadab dab dab life (nanananana)
        Am      Dm    G
Life is life (nanananana)

          Am                F       Dm              G
And you call    when it's over, you call it should last
       Am               F          Dm             G
Every minute    of the future is a memory of the past
           Am             F        Dm           G
Cause we all    gave the power, we all gave the best
    Am               Dm             F                 G
And everyone    gave everything and every song everybody sang

Life is life




                                                                324
Pat Woods - Poor Lonesome Cowboy

D                 G
  Lonesome cowboy, lonesome cowboy
D          Bm        Em       A
  You're a long long way from home
D                 G
  Lonesome cowboy, lonesome cowboy
D          Bm        Em A D
  You've a long long way to roam


        D
I'm a poor lonesome cowboy, I'm a long long way from home
                       F#m              G                 A
And this poor lonesome cowboy has got a long long way to roam
      D             D7            G
Over mountains over prairies from dawn till day is done
   Bm                F#m      G      A       D
My horse and me keep riding into the setting sun


D                 G
  Lonesome cowboy, lonesome cowboy
D          Bm        Em       A
  You're a long long way from home
D                 G
  Lonesome cowboy, lonesome cowboy
D          Bm        Em A D
  You've a long long way to roam


          D
There are guys who just figure every problem with a gun
                  Fm              G                  A
And a finger on a trigger can be dangerous, hurt someone
    D                    D7       G
But problems solve much better by keeping calm and cool
   Bm                F#m       G       A      D
My horse and me keep riding, I ain't nobody's fool



D                 G
  Lonesome cowboy, lonesome cowboy
D          Bm        Em       A
  You're a long long way from home
D                 G
  Lonesome cowboy, lonesome cowboy
D          Bm        Em A D
  You've a long long way to roam




                                                                325
      D
I'm a poor lonesome cowboy but it doesn't bother me
                          Fm               G              A
'Cause this poor lonesome cowboy prefers a horse for company
    D               D7          G
Got nothing against women but I wave them all goodbye
   Bm                F#m        G          A     D
My horse and me keep riding, we don't like being tied


D                 G
  Lonesome cowboy, lonesome cowboy
D          Bm        Em       A
  You're a long long way from home
D                 G
  Lonesome cowboy, lonesome cowboy
D          Bm        Em A D
  You've a long long way to roam




                                                               326
Patrick Zabé - Agadou

A F#m D                                         A
A-ga dou dou dou, pousse l’ananas et mouds l’café
                                              D
Aga dou dou dou, pousse l’ananas et mouds l’café
                                                           A
Tape la pomme, tape la poire, pousse l’ananas et mouds l’café
                                                           D
Tape la pomme, tape la poire, pousse l’ananas et mouds l’café


                                      A
L’an dernier à Tahiti une jolie vahinée
                                    D
Avec son ukulélé m'a vraiment ukulélé
                                                 A
Elle vendait de fort beaux fruits avec son ukulélé
                                                      D
Quand on les avait choisis, y avait plus qu’à les manger


                                              A
Aga dou dou dou, pousse l’ananas et mouds l’café
                                              D
Aga dou dou dou, pousse l’ananas et mouds l’café
                                                           A
Tape la pomme, tape la poire, pousse l’ananas et mouds l’café
                                                           D
Tape la pomme, tape la poire, pousse l’ananas et mouds l’café


                                           A
Accusé d’avoir goûté aux pommes de ma vahinée
                                             D
Paraît-il sans permission, on me jeta en prison
                                             A
Je dûs payer au papa comme une poire mon ananas
                                      D
Et puis le dédommager d'un ukulélé fêlé


                                              A
Aga dou dou dou, pousse l’ananas et mouds l’café
                                              D
Aga dou dou dou, pousse l’ananas et mouds l’café
                                                           A
Tape la pomme, tape la poire, pousse l’ananas et mouds l’café
                                                           D
Tape la pomme, tape la poire, pousse l’ananas et mouds l’café


                                         A
Si tu vas à Tahiti, prend garde au ukulélé
                                                         D
Dis-toi que ces fruits si bons sont destinés aux gogos




                                                                327
A F#m D                                          A
A-ga dou dou dou, pousse l’ananas et mouds l’café
                                              D
Aga dou dou dou, pousse l’ananas et mouds l’café
                                                           A
Tape la pomme, tape la poire, pousse l’ananas et mouds l’café
                                                           D
Tape la pomme, tape la poire, pousse l’ananas et mouds l’café


                                              A
Aga dou dou dou, pousse l’ananas et mouds l’café
                                              D
Aga dou dou dou, pousse l’ananas et mouds l’café
                                                           A
Tape la pomme, tape la poire, pousse l’ananas et mouds l’café
                                                           D
Tape la pomme, tape la poire, pousse l’ananas et mouds l’café


Fade out




                                                                328
Paul Piché - Heureux D'Un Printemps

Suffle beat

Riff de base:
   Am                                     G
    1   + 2   + 3   + 4   +   1   + 2   + 3   + 4   +
e|--------0---0-------------|-------0---0-------3---3-|
B|--------1---1-------------|-------1---1-------0---0-|
G|o-------2---2-----------2-|-------2---2-------0---0-|
D|o-------2---2-------0h2---|-------2---2-------0---0-|
A|--0-----------------------|-0-----------------2---2-|
E|--------------0-----------|-------------3-----------|

   1   + 2   + 3   + 4   +   1   + 2   + 3   + 4   +
e|-------3---3-------------|-------0---0-------0---0--|
B|-------0---0-------------|-------0---0-------1---1--|
G|-------0---0-------------|-------0---0-------2---2-o|
D|-------0---0-----------2-|-------2---2-------2---2-o|
A|-------2---2-------0h2---|-------2---2-0------------|
E|-3-----------3-----------|-0------------------------|


Intro (4x):
    1   + 2   + 3   + 4   +
e|--------0---0--------------|
B|--------1---1--------------|
G|o-------2---2-----------2-o|
D|o-------2---2-------0h2---o|
A|--0------------------------|
E|--------------0------------|

Am                                      G
Heureux d'un printemps qui m'chauffe la couenne
                        Em        Am
Triste d'avoir manqué encore un hiver
                                          G
J'peux pas faire autrement ça m'fait d'la peine
                                   Em                 Am
On vit rien qu'au printemps, l'printemps dure pas longtemps

Riff de base 2x, puis intro 4x
Avladidadi, dadididam...

Am                                        G
Assis su l'bord d'mon trou j'me creuse la tête
                                   Em                 Am
J'pense au bonheur des gens j'sais ben qu'ça va pas durer
                                               G
Ça a l'air qu'ça prend des sous pour faire la fête
                                      Em           Am
À qui appartient l'beau temps l'hiver l'été durant

Riff de base 2x
Avladidadi, dadididam...




                                                              329
Am                                      G
L'été c'est tellement bon quand t'as la chance
                                Em               Am
D'avoir assez d'argent pour voyager sans t'inquiéter
                                     G
Pour le fils d'un patron c'est les vacances
                                        Em              Am
Pour la fille du restaurant c'est les sueurs pis les clients

Riff de base 2x
Avladidadi, dadididam...

Am                                     G
On dit qu'l'hiver est blanc comme un nuage
                             Em            Am
Mais ça évidemment dans l'chalêt près du foyer
                                                          G
Dans l'fond c'est salissant au prix s'qui est l'chauffage
                                         Em               Am
Y'a pas pire moment d'l'année quand t'es pris pour t'endetter


Riff de base qui arrête au Em, puis riff de base 2 fois
Avladidadi, dadididam...

Riff de base 2 fois avec solo de violon, puis intro 4x


Am                                               G
Faut qu'j'm'en retourne dans mon trou creuser ma peine
                                     Em            Am
J'ai vu l'surintendant j'peux'rien t'dire en attendant
                                      G
Le jour où ça sera nous qui ferons la fête
               G               Em                Am
Imaginez l'printemps quand l'hiver sera vraiment blanc


Riff de base 2x

Am                                      G
Heureux d'un printemps qui m'chauffe la couenne
                        Em        Am
Triste d'avoir manqué encore un hiver
                                          G
J'peux pas faire autrement ça m'fait d'la peine
                                   Em                 Am
On vit rien qu'au printemps, l'printemps dure pas longtemps

Am                                      G
Heureux d'un printemps qui m'chauffe la couenne
                        Em        Am
Triste d'avoir manqué encore un hiver
                                          G
J'peux pas faire autrement ça m'fait d'la peine
                                   Em                 Am
On vit rien qu'au printemps, l'printemps dure pas longtemps




                                                                330
Paul Piché - Y A Pas Grand Chose Dans L'Ciel À Soir

Shuffle beat

      D   Dsus2 Dsus4   A   Asus2 Asus4   E     B
e|----2-----0-----3-----0-----0-----0-----0-----2----|
B|----3-----3-----3-----2-----0-----3-----0-----4----|
G|----2-----2-----2-----2-----2-----2-----1-----4----|
D|----0-----0-----0-----2-----2-----2-----2-----4----|
A|----------------------0-----0-----0-----2-----2----|
E|----------------------------------------0----------|

L'idée est, pour le D et le A, d'alterner les accords majeurs, sus2 et sus4

Riff principal (une suggestion):
    D                                           A
    1   + 2   + 3   + 4   +   1   + 2   + 3   + 4   +
e|--0h2-2-2---3-2---0-2-----|-0h2-2-3---2-2---0-0-----|
B|--3---3-3---3-3---3-3-----|-3---3-3---3-3---0-2-----|
G|o-2-----2-----2---2-2-----|-2-----2-----2-----2-----|
D|o-0-----0-----0-----0-----|-0-----0-----0-----2-----|
A|--------------------------|-------------------0-----|
E|--------------------------|-------------------------|

                                               D
   1   + 2   + 3   + 4   +   1   + 2   + 3   + 4   +
e|-0---0-0---0-0---0-0-----|-0---0-0---0-0---0-2------|
B|-0h2-2-2---3-2---0-2-----|-0h2-2-3---2-2---0-3------|
G|-2---2-2---2-2---2-2-----|-2---2-2---2-2-----2-----o|
D|-2-----2-----2-----2-----|-2-----2-----2-----0-----o|
A|-0-----0-----0-----0-----|-0-----0-----0------------|
E|-------------------------|--------------------------|


Intro:   Riff principal 2 fois

D                                                                           A
Y a pas grand chose dans l'ciel à soir, y a pas grand chose y a rien à voir
                                                                   D
Y a rien à voir y a pas d'lumière, kessé j'vas faire dans l'ciel à soir
                                                                         A
J'veux pas rester su' mon trottoir, j'veux aller danser j'ai envie d'crier
                                                                       D
Maudit qu'c'est donc d'la grosse misère quand chu pogné pour m'ennuyer

                                                                                A
C'est pas parce que ch't'un mammifère pis qu'j'ai l'sang chaud même en hiver
                                                                D
Qu'j'ai pas besoin d'calorifère, qu'j'ai pas besoin de m'amuser
                                                              A
Tout en faisant mon secondaire, passant des tests pour m'orienter
                                                                    D
J'avais pas assez d'vocabulaire, on m'a dit que j'pouvais pas chanter
                                                                  A
Faut-tu qu'j'devienne un militaire, un dromadaire, un marguiller
                                                           D
Un missionnaire impopulaire avec des médailles d'l'année passée


Adidalada... (riff principal 2 fois)

                                                                                    331
D     D        E   E

                                                                        B
Pour passer l'temps qu'est-ce tu veux faire, chu ben écoeuré de m'masturber
                                                                  E
J'pense qu'en devenant humanitaire tous mes problèmes vont s'arranger
                                                                          B
Y a des problèmes partout s'a terre, y faut que j'commence à m'en occuper
                                                                                   E
Là j'passe toutes sortes de questionnaires pour savoir c'que c'est qu'un ouvrier
                                                                         B
Pis si ça marche pas j'boirai d'la bière, j'boirai assez pour me saouler
                                                             E
J'jouerai au révolutionnaire qui boit un peu pour se r'poser
                                                               B
Tout en fumant mes Belvederes pis en voyant l'monde à l'envers
                                                                           E
M'a être malheureux de toute manière, la bière m'fait faire de l'urticaire

                                                                               B
Y a pas grand chose dans l'ciel à soir, y a pas grand chose y a rien à voir
                                                                   E
Y a rien à voir y a pas d'lumière, kessé j'vas faire dans l'ciel à soir
                                                                           B
J'veux pas rester su' mon trottoir, j'veux aller danser j'ai envie d'crier
                                                                   E
Maudit qu'c'est donc d'la grosse misère quand chu pogné pour m'ennuyer

                       B   E      B      E <----- final
Adidalada...




                                                                                       332
Philippe Lafontaine - Coeur De Loup

Intro:

F#m         (G)   Bm        (G)   C#7       (G)   F#m       (G)
F#m         (G)   Bm        (G)   C#7       (G)   F#m       (G)
F#m         (G)   Bm        (G)   C#7       (G)   F#m       (G)
F#m         (G)   Bm        (G)   C#7       (G)   F#m


                         F#m                          Bm
Pas le temps d'tout lui dire pas le temps d'tout lui taire
                         C#7                                     F#m
Juste assez pour tenter la satyre qu'elle sente que j'veux lui plaire
                     F#m                 Bm
Sous le pli de l'emballage la lubie de faufiler
                   C#7                            F#m
La folie de rester sage si elle veut ou pas l'embrasser
                          F#m                            Bm
Quand d'un coup d'elle se déplume mon oeillet lui fait de l'oeil
                     C#7                                    F#m
Même hululer sous la lune ne m'fait pas peur pourvu qu'elle veuille


                     D                A
Je n'ai qu'une seule envie me laisser tenter
   G                       C#7
La victime est si belle et le crime est si gai


                  F#m                      Bm
Pas besoin de beaucoup mais pas de peu non plus
                         C#7                                  F#m
Par le biais d'un billet fou lui faire savoir que j'n'en peux plus
                    F#m                       Bm
C'est le cas du kamikaze c'est l'abc du condamné
                           C#7                            F#m
Le légionnaire qui veut l'avantage des voyages sans s'engager


                    F#m                       Bm
Elle est si frêle esquive sous mes bordées d'amour
                   G#7                         C#7
Je suppose qu'elle suppose que je l'aimerai toujours


                   F#m                      Bm
Le doigt sur l'aventure le pied dans l'inventaire
                            C#7                              F#m
Même si l'affaire n'est pas sûre ne pas s'enfuir ne pas s'en faire


                     D                A
Je n'ai qu'une seule envie me laisser tenter
   G                       C#7
La victime est si belle et le crime est si gai


F#m         (G) Bm          (G) C#7         (G) F#m         (G)
F#m         (G) Bm          (G) C#7         (G) F#m

                                                                        333
Répéter 4 fois, dont la première sans accord:
F#m                        Bm
Coeur de loup, peur du lit séduit la sans délais
C#7                                       F#m
Suis le swing c'est le coup du gong du king. BONG!
F#m                       Bm
Coeur de loup, m'as-tu lu l'appel aux gais délits
C#7                                     F#m
Sors du ring c'est le coup du gong du king. BONG!


                   F#m                  Bm
Pas le temps de mentir ni de quitter la scène
                       C#7                                F#m
YEP! Elle aura beau rougir de toute façon il faut qu'elle m'aime


                        D              A
Je n'ai qu'une seule envie me laisser tenter
    G                      C#7
La victime est si belle et le crime est si gai


                         F#m                    Bm
Pas le temps de tout lui dire ni de quitter la scène
                       C#7                                F#m
YEP! Elle aura beau rougir de toute façon il faut qu'elle m'aime


Ça répète les 2 lignes précédente en ajoutant:
F#m                       Bm
Coeur de loup             séduit la
C#7                       F#m
Où elle est               beau colis
F#m                       Bm
Coeur de loup             l'appel aux
C#7                       F#m
En dit long               c'est joli


F#m                         Bm
Coeur de loup peur du lit   séduit la sans délais
C#7                         F#m
Où elle est Oh la la        beau colis, joli lot
F#m                         Bm
Coeur de loup, m'as-tu lu   l'appel aux gais délits
C#7                         F#m
En dit long, met l'hola     c'est joli, quand c'est laid


Répèter et fade out...




                                                                   334
Pink Floyd - Pigs On The Wing

      G     C   Csus4 Gsus4   A     Gx    A7    D     Am    F    C/B Dsus4
e|----3-----0-----0-----3-----0-----------3-----2-----0-----1-----0-----3----
B|----0-----1-----1-----0-----2-----0-----2-----3-----1-----1-----1-----3----
G|----0-----0-----0-----0-----2-----0-----2-----2-----2-----2-----0-----2----
D|----0-----2-----3-----0-----2-----0-----2-----0-----2-----3-----x-----0----
A|----2-----3-----3-----3-----0-----------0-----------0-----3-----2----------
E|----3-----------------3-----------------------------------1----------------


Intro:

 1 2 3 4 1 2 3 4
 G           C
 G           C
 G           C
 G

                  C     Csus4 C
If you didn't care
                    G      Gsus4      G
what happened to me
                C
And I didn't care
G         Gsus4 G
For you
          A                Gx A Gx            A7
We would zig-zag our way          through the boredom and pain
  G             C        D                 G
Occasionally glancing up through the rain
Am           F              Am           F       C  C/B   Am
    Wondering which of the buggers to blame
      D        Dsus4 D                     G
And watching           for pigs on the wing




                                                                                335
Pink Floyd - Wish You Were Here

Intro:

   1 - + - 2 - + - 3 - + - 4 - + -   1 - + - 2 - + - 3 - + - 4 - + -
e|---------------------------------|---------3-----3---3-------------|
B|---------------------------------|---------3-----3---3-------------|
G|---------------------------------|---------0-----0---0-----0-------|
D|-----------------------------0---|-2-------2-----2---2-2-------2---|
A|-------------------------0h2-----|---------------------------------|
E|---------------------------------|---------------------------------|

   1 - + - 2 - + - 3 - + - 4 - + -   1 - + - 2 - + - 3 - + - 4 - + -
e|-------3-3---3-----3-------------|---------3-----3---3-------------|
B|-------3-3---3-----3-------------|---------3-----3---3-------------|
G|-------0-0---0-----0-------------|---------0-----0---0-----0-------|
D|-0-----0-0---0-----0---------0---|-2-------2-----2---2-2-------2---|
A|-------------------------0h2-----|---------------------------------|
E|---------------------3-----------|---------------------------------|

   1 - + - 2 - + - 3 - + - 4 - + -   1 - + - 2 - + - 3 - + - 4 - + -
e|-------3-3---3-----3-------------|---------3-----3---3-------------|
B|-------3-3---3-----3-------------|---------3-----3---3-------------|
G|-------0-0---0-----0-------------|---------0-----0---0-------------|
D|-0-----0-0---0-----0---------0---|-2-------2-----2---2-2---0-------|
A|-------------------------0h2-----|-----------------------------2---|
E|---------------------3-----------|---------------------------------|

   1 - + - 2 - + - 3 - + - 4 - + -   1 - + - 2 - + - 3 - + - 4 - + -
e|----(3)--3-3-------3-3-3---------|---------3-----3---3-------------|
B|----(3)--3-3-------3-3-3---------|---------3-----3---3-------------|
G|----(2)--2-2-------2-2-2---------|---------0-----0---0-------------|
D|----(2)--2-2-------2-2-2-----0---|-2-------2-----2---2-2---0-------|
A|-0-----------0-----------0h2-----|-----------------------------2---|
E|---------------------------------|---------------------------------|

   1 - + - 2 - + - 3 - + - 4 - + -   1 - + - 2 - + - 3 - + - 4 - + -
e|----(3)--3---------3-3-3-----3-3-|-------3-3-------3---------3-----|
B|----(3)--3---------3-3-3-----3-3-|-------3-3-------3---------3-----|
G|----(2)--2---------2-2-2-----0-0-|-------0-0-------0---------0-----|
D|----(2)--2---------2-2-2-----0-0-|-------0-0-------0---------0-----|
A|-0-----------0-----------0h2-----|---------2-------2---------2-----|
E|---------------------------------|-3-------3---3---3---3---3-3-3---|

   1 - + - 2 - + - 3 - + - 4 - + -   1 - + - 2 - + - 3 - + - 4 - + -
e|-3---------3-----3---------------|-----------------------------------|
B|-3---------3-----3---------------|---------3-------5---3-------------|
G|-0---------0-----0---------------|-----2/4-----------4---------4p2p0-|
D|-0---------0-----0-----------0---|-2---------------------------|___|-|
A|-2---------2-----2-------0h2-----|-------------------------------3---|
E|-3---3---3-3-3---3---3-----------|-----------------------------------|

   1 - + - 2 - + - 3 - + - 4 - + -   1 - + - 2 - + - 3 - + - 4 - + -
e|---------------------------------|----3/5-5/3-----------------------|
B|---------------------------------|----3/5-5/3-3/5-5/3-----3/5-5/3p0-|
G|---------------------------------|------------2/4-4/2--0--2/4-4/2p0-|
D|-0-------------0-0-----------0---|-2--------------------------------|
A|------------/2-----------0h2-----|----------------------------------|
E|---------------------3-----------|----------------------------------|


                                                                           336
   1 - + - 2 - + - 3 - + - 4 - + -   1 - + - 2 - + - 3 - + -   4 - + -
e|-3-----3-----3-----3-------------|-----------------------------------|
B|-3-----3-----3-----3-------------|---------3---5--------b7r5-3---3---|
G|-0-----0-----0-----0-------------|-----2/4---4-----------------4-----|
D|-0-----0-----0-----0---------0---|-2---------------------------------|
A|-2-------2---2-----2-----0h2-----|-----------------------------------|
E|-3-------3---3-----3-3-----------|-----------------------------------|


   1 - + - 2 - + - 3 - + - 4 - + -   1 - + - 2 - + - 3 - + - 4 - + -
e|---------------------------------|---------------------------------|
B|-------------3-5-----------------|---------3---5------5b7--5/3-5---|
G|-2------4b6-----4b6--2-----------|-----2/4---4---------------------|
D|-----------------------------0---|-2-------------------------------|
A|-------------------------0h2-----|---------------------------------|
E|---------------------------------|---------------------------------|


   1 - + - 2 - + - 3 - + - 4 - + -   1 - + - 2 - + - 3 - + - 4 - + -
e|-----------------------------3-3-|-3---------3-----3-------3-3-3---|
B|-----------------------------3-3-|-3---------3-----3-------3-3-3---|
G|-2----------b6r4-2-----------0-0-|-0---------0-----0-------0-0-0---|
D|-----------------------------0-0-|-0---------0-----0-------0-0-0---|
A|-------------------------0h2-----|-2-------2-2-2---2-------2-2-2---|
E|---------------------------------|-3-------3-3-3---3-------3-3-3---|



C                          D
 So, so you think you can tell
             Am
Heaven from hell
                  G
Blue skies from pain
                      D
Can you tell a green field
                    C
From a cold steel rail
                 Am
A smile from a veil
                        G
So you think you can tell

                      C
Did they get you to trade
               D
Your heros for ghosts
                 Am
Hot ashes for trees
                 G
Hot air for a cool breeze
                    D
Cold comfort for change
          C
Did you exchange
                        Am
A walk on part in the war
                      G
For a lead role in a cage


                                                                           337
Solo (first part (~12 first bars) of the intro)



C                                  D
  How I wish, how I wish you were here
           Am
We're just two lost souls swimming in a fish bowl
G
  Year after year
D
  Running over the same old ground
C                               Am
  What have we found, same old fears
               G
Wish you were here


First part (~12 first bars) of the intro repeated until the end
(a little more than twice)




                                                                  338
Plain White T's - Hey There Delilah

       D      F#m      Bm      Ax    Bm/C#    G       A       A5
e|------------------------------------------------------------------
B|------3-------2-------3---------------2------3-------2-------5----
G|------2-------2-------4---------------3------4-------2-------2----
D|----0-------4-----------------------------------------------------
A|--------------------2-------0-------4--------------0-------0------
E|-------------------------------------------3----------------------


Intro:
D        F#m    D       F#m


D                                   F#m
  Hey there Delilah, what’s it like in New York City
      D                                     F#m
I’m a thousand miles away but girl tonight you look so pretty
        Bm      Ax G                      A                 Bm
Yes you do,           Time Square can’t shine as bright as you
                A      A5
I swear it’s true
D                                   F#m
  Hey there Delilah, don’t you worry about the distance
           D                                      F#m
I’m right there if you get lonely, give this song another listen
             Bm      Ax G               A               Bm
Close your eyes,          listen to my voice it’s my disguise
              A       A5
I’m by your side


D                 Ax   Bm    Bm/C# D                Ax      Bm   Bm/C#
Oh it’s what you do to me,         oh it’s what you do to   me
D                 Ax   Bm    Bm/C# D                Ax      Bm
Oh it’s what you do to me,         oh it’s what you do to   me
         Bm/C# D       D/A (one beat)
What you do to me


D                            F#m
  Hey there Delilah, I know times are getting hard
           D                                    F#m
But just believe me girl some day I'll pay the bills with this guitar
               Bm    Ax G                A               Bm
We'll have it good,       we'll have the life we knew we would
           A      A5
My word is good
D                              F#m
  Hey there Delilah, I’ve got so much left to say
         D                                 F#m
If every simple song I wrote to you would take your breath away
             Bm    Ax G              A                  Bm
I’d write it all,       even more in love with me you’d fall
             A       A5
We’d have it all




                                                                         339
D                Ax      Bm     Bm/C# D                Ax      Bm   Bm/C#
Oh it’s what you do to   me,          oh it’s what you do to   me
D                Ax      Bm     Bm/C# D                Ax      Bm   Ax
Oh it’s what you do to   me,          oh it’s what you do to   me


  G                                   A
A thousand miles seems pretty far but they’ve got planes and trains and cars
      D                     Ax    Bm     Ax
I’d walk to you if I had no other way
      G                                  A
Our friends would all make fun of us and we'll just laugh along because
    D                          C#x       Bm     Ax
We know that none of them have felt this way
    G                          A
Delilah I can promise you that by the time that we get through
      Bm                                             A         A5
The world will never ever be the same, and you’re to blame


D                           F#m
  Hey there Delilah you be good and don’t you miss me
          D                                        F#m
Two more years and you’ll be done with school and I'll be making history
       Bm   Ax G                    A              Bm   Ax
Like I do,         you’ll know it's all because of you
G                A              Bm    Ax
   We can do whatever we want to
G             A                 Bm                 A       A5
  Hey there Delilah here's to you, this one’s for you


D                 Ax   Bm       Bm/C# D                Ax      Bm   Bm/C#
Oh it’s what you do to me,            oh it’s what you do to   me
D                 Ax   Bm       Bm/C# D                Ax      Bm
Oh it’s what you do to me,            oh it’s what you do to   me
         Bm/C#    D
What you do to me



D           Ax   Bm            Bm/C#   (3x)
Ohhh...

D     D/A   D<-final




                                                                               340
Plume Latraverse - Jonquière

Shuffle beat

      F     G     E    Bb7    Em    Dm    Am
e|----1-----3-----0-----1-----0-----1-----0----|
B|----1-----0-----0-----3-----0-----3-----1----|
G|----2-----0-----1-----1-----0-----2-----2----|
D|----3-----0-----2-----3-----2-----0-----2----|
A|----3-----2-----2-----1-----2-----------0----|
E|----1-----3-----0-----------0----------------|


Riff 1:
   C                         Am          G
   1    + 2  + 3   + 4   +   1   + 2   + 3   + 4   +
e|-----0-----0-----0-----0-|-----0-----0-----3-----3-|
B|-----1-----1-----1-----1-|-----1-----1-----0-----0-|
G|-------------------------|-------------------------|
D|-------0h2---------0-----|-------0h2---------------|
A|-3-----------2-----------|-0-----------------0h2---|
E|-------------------------|-------------3-----------|

Riff 2:
   Am        Am/G#          Am/G       Am/F#
   1    + 2  + 3   + 4   +   1   + 2   + 3   + 4   +
e|-----0-----0-----0-----0-|-----0-----0-----0-0---0-|
B|-----1-----1-----1-----1-|-----1-----1-----1-1---1-|
G|-------------------------|-------------------2-----|
D|-------0h2---------0h2---|-------0h2---------------|
A|-0-----------------------|-------------------------|
E|-------------4-----------|-3-----------2-----------|

Riff 3:
   F          F/E           F/D         F/C
   1    + 2  + 3   + 4   +   1   + 2   + 3   + 4   +
e|-------1---1-------1---1-|-------1---1-------1---1-|
B|-------1---1-------1---1-|-------1---1-------1---1-|
G|-------2---2-------2---2-|-------2---2-------2---2-|
D|-------3---3-------3---3-|-0-----------------3---3-|
A|-------3---3-------3---3-|-------------3-----3---3-|
E|-1-----1---1-0-----------|-------------------------|



Intro: Riff 1          2x

C    Am G                 C Am G
Soul      comme une botte
C               Am        G         C   Am G
  Assis au bock pas loin d'la porte
F                                     G
  Je r'garde danser les Black Labels
                       E                Riff 2
Sur une vieille toune de D'Eddy Mitchel
F                  Bb7                   G     G F Em Dm
  Curieux j'y pensais justement même pas

C   Am G C      Am G


                                                           341
C Am G                   C  Am G
Mou     comme une crotte
C                    Am       G         C     Am G
  Chaud comme un spot dans mes culottes
F                                           G
  Qu'Y'éclaire le stage ou j'm'en va jouer
                   E              Riff 2
J'ai une demi-heure pour dégriser
F                Bb7                      G     G F Em Dm
  Curieux j'y pensais justement même pus

(On arrête presque de jouer)
Am                                G
   De charmants étudiants plein d'pep ep ep
Am             G             F            G
   M'ont invité à leur cégep
Am                                     G
   Pour aller jouer d'la belle musique zizique
Am                G              Riff 3      G      G F Em Dm
   Pas pour faire mon grand alcoolique

C   Am G C     Am G

C Am G                   C  Am G
Fou     comme une plotte
C                        Am   G              C    Am G
  Une plote qui s'frotte s'un cadre de porte
F                                        G
  Qui flotte à droite qui flush à gauche
                     E               Riff 2
J'me pitch su'l stage avec mon roach
F                                  G
  Curieux j'y pensais pus pantoute

   1 2 3 4
e|---------|
B|---------|
G|---------|
D|---------|
A|-----0-2-|
E|---3-----|

C   Am G             C  Am G
Doo      doo doo doo
C                Am      G        C   Am G
  Doo doo doo doo doo doo doo doo
F                                     G
  C'est une belle crowd icitte à soir
               E                      F
Chu ben content d'être v'nu vous voir
                                         Bb7
J'vous r'mercie ben pour la grosse bière
                               G      G F Em Dm C(final)
J'ai eu ben du fun à Jonquière




                                                                342
Plume Latraverse - Rideau

Shuffle beat

Riff principal:
   E
   1   + 2   + 3   + 4   +   1   + 2   + 3   + 4   +
e|-0---------------------0-|-0-------------------0-0-|
B|-0---------------------0-|-0-------------------0-0-|
G|-1---------------------1-|-1-------------------1-1-|
D|-2---------------------2-|-2-------------------2-2-|
A|-2---------------------2-|-2-------------------2-2-|
E|-0---------------------0-|-0-------------------0-0-|


   1   + 2   + 3   + 4   +   1   + 2   + 3   + 4   +
e|-0-----------------------|-------------------------|
B|-0-----------------------|-------------------------|
G|-1-----------------------|-------------------------| mesure étiré
D|-2-----------------------|-------------------------| un peu
A|-2-----------------------|-------------------------|
E|-0-----------------------|-------------------------|

   A
   1   + 2   + 3   + 4   +   1   + 2   + 3   + 4   +
e|-------------------------|-------------------------|
B|-------------------------|-------------------------|
G|-2---2-----------------2-|-x---2-----2-x---2-----2-|
D|-2---2-4---4-5---5-4---2-|-x---2-4---2-x---2-4---2-|
A|-0---0-0---0-0---0-0---0-|-x---0-0---0-x---0-0---0-|
E|-------------------------|-------------------------|

   E
   1   + 2   + 3   + 4   +   1   + 2   + 3   + 4   +
e|-------------------------|-------------------------|
B|-------------------------|-------------------------|
G|-------------------------|-------------------------|
D|-2---2-----------------2-|-x---2-----2-x---2-------|
A|-2---2-4---4-5---5-4---2-|-x---2-4---2-x---2-4-----|
e|-0---0-0---0-0---0-0---0-|-x---0-0---0-x---0-0-----|

   B                         A
   1   + 2   + 3   + 4   +   1   + 2   + 3   + 4   +
e|-2---------------2-2-----|-0-------------0-0-0-----|
B|-4---------------4-4-----|-2-------------2-2-2-----|
G|-4---------------4-4-----|-2-------------2-2-2-----|
D|-4---------------4-4-----|-2-------------2-2-2-----|
A|-2---------------2-2-----|-0-------------0-0-0-----|
E|-------------------------|-------------------------|

   E           A             E     A     B
   1   + 2   + 3   + 4   +   1   + 2   + 3   + 4   +
e|-0-----------0-----------|-0-----0-----2-----------|
B|-0-----------2-----------|-0-----2-----4-----------|
G|-1-----------2-----------|-1-----2-----4-----------| étiré à
D|-2-----------2-----------|-2-----2-----4-----------| volonté...
A|-2-----------0-----------|-2-----0-----2-----------|
E|-0-----------------------|-0-----------------------|



                                                                      343
Ensuite, faire un turn-around blues quelconque.
J'utilise celui-ci:

   1   + 2   + 3   + 4   +   1   + 2   + 3   + 4   +
e|-----0-----0-----0-------|-------2---2-2---2-------|
B|---3-----2-----1---------|-------0---0-0---0-------|
G|/4-----3-----2-----0h1p0-|-------2---2-2---2-------|
D|-------------------^^^^^-|-------1---1-1---1-------|
A|------------------trille-|-0-1-2-2---2-2---2-------|
E|-------------------------|-------------------------|


E
Mettez vos lunettes su' vot' banc

Assoyez-vous ben hardiment

Vot' joint dans l'anus, vot' bière entre les dents

Ça n'en prend pas plus, chers parents, chers enfants
                  A
Pour faire un bon show
                                      E
On paie assez cher, faites ça comme y faut
     B                           A
Pis ceux qui sont en tabarnak, y viendront nous voir à l'entracte
   E                A                   E      A       B
On est ben ouvert à vos commentaires si vous payez l'cognac-gnac-gnac-gnac

Si vous payez l'cognac


E
Roulez vot' belle-mère dans l'ciment

Faites-y visiter l'St-Laurent

Pognez vot' voisin d'la rangée d'en avant

D'un amical coup d'poing, tapochez jusqu'à temps
                  A
Qu'y fasse un bon show
                                      E
On paie assez cher, faites ça comme y faut
     B                           A
Pis ceux qui sont en tabarnak, y viendront nous voir à l'entracte
   E                A                   E      A       B
On est ben ouvert à vos commentaires si vous payez l'cognac-gnac-gnac-gnac

Si vous payez l'cognac


E
Avalez deux pots d'mayonnaise

Pis détendez-vous su' vot' chaise

Dites-vous qu'on est bon, même si vous êtes sourd




                                                                             344
On n'a p'être pas d'nom mais on s'bat tous les jours
                  A
Pour faire un bon show
                                      E
On paie assez cher, faites ça comme y faut
     B                           A
Pis ceux qui sont en tabarnak, y viendront nous voir à l'entracte
   E                A                   E      A       B
On est ben ouvert à vos commentaires si vous payez l'cognac-gnac-gnac-gnac

Si vous payez l'cognac




                                                                             345
Queen - We Are The Champions

   Cm Bb Eb Ab F C Am Dm Cx A Abx F#dim7 Gm Bbdim7 A Ab6 Bb7 C7sus4 Fm
e|-3--1--3--4--1--0--0--1--3--0--------2----3----3----0------1----1----1--|
B|-4--3--4--4--1--1--1--3--5--2---1----1----3----2----2--4---3----1----1--|
G|-5--3--3--5--2--0--2--2--5--2---1----2----3----3----2--5---1----0----1--|
D|-5--3--5--6--3--2--2--0--5--2---1----1----5----2----2--3---3----3----3--|
A|-3--1--6--6--3--3--0-----3--0-------------5---------0--x---1----3----3--|
E|----------4--1----------------------------3------------4-------------1--|


              Cm
I've paid my dues
Bb         Cm
Time after time
Bb          Cm
I've done my sentence
      Bb          Cm
But commited no crime
Bb         Eb
And bad mistakes
Ab          Eb
I've made a few
Ab          Eb            Bb           Cm
I've had my share of sand kicked in my face
    F          Bb
But I've come through

                 Bb                       C
And I need to go on, and on, and on, and on

F          Am            Dm          Bb Cx
We are the champions my friends
    F              Am                  Bb   A Ab   F#dim7
And We'll keep on fighting till the end
Gm         C           Bbdim7      A    Gm
We are the champions, we are the champions
F            Gm             Ab6         B7         C7sus4
No time for losers 'cause we are the champions
       Fm       Bb    Fm    Bb  Fm     C7sus4
On the world

                 Cm
I've taken my bows
      Bb          Cm
And my curtain calls
Bb                Cm
You brought me fame and fortune and everything that goes with it
Bb            Cm
I thank you all
           Bb             Eb
But it's been no bed of roses
Ab            Eb
No pleasure cruise
   Ab               Eb               Bb          Cm
I consider it a challenge before the whole human race
         F             Bb
And I ain't gonna lose



                                                                              346
                 Bb                       C
And I need to go on, and on, and on, and on

F          Am           Dm         Bb Cx
We are the champions my friends
    F             Am                 Bb  A Abx F#dim7
And We'll keep on fighting till the end
Gm         C          Bbdim7     A    Gm
We are the champions, we are the champions
F            Gm            Ab6        B7       C7sus4          F
No time for losers 'cause we are the champions          on the world

F          Am           Dm         Bb Cx
We are the champions my friends
    F             Am                 Bb  A Abx F#dim7
And We'll keep on fighting till the end
Gm         C          Bbdim7     A    Gm
We are the champions, we are the champions
F            Gm            Ab6        B7       C7sus4
No time for losers 'cause we are the champions




                                                                       347
R.E.M. - Losing My Religion

Intro:

             F                         G         Am                        G
   3 + 4 +   1 + 2 + 3 + 4 +   1 + 2 + 3 + 4 +   1 + 2 + 3 + 4 +   1 + 2 + 3 + 4 +
e|---0-----|-1-----1-1-1---1-|---1---1---0-----|-0---0-0-0---0-0-|-----0-0---0-----|
B|-3---3---|-1-----1-1-1---1-|---1---1-3---3---|-1---1-1-1---1-1-|-----1-1-3---3---|
G|-------2-|-2-----2-2-2---2-|---2---2-------2-|-2---2-2-2---2-2-|-----2-2-------2-|
D|---------|-3-----3-3-3---3-|---3---3---------|-2---------------|-----------------|
A|---------|-3-----3-3-3---3-|---3---3---------|-0-------2-------|-3---------------|
E|---------|-1-----1-1-1---1-|---1---1---------|-----------------|-----------------|

   F                         G         Am                G
   1 + 2 + 3 + 4 +   1 + 2 + 3 + 4 +   1 + 2 + 3 + 4 +   1 + 2 + 3 + 4 +
e|-1-----1-1-1---1-|---1---1---0-----|-0---0---0-0---3-|-----------------|
B|-1-----1-1-1---1-|---1---1-3---3---|-1---1---1-1---0-|-----------------|
G|-2-----2-2-2---2-|---2---2-------2-|-2---2---2-2---0-|-----------------|
D|-3-----3-3-3---3-|---3---3---------|-2---2---2-2---0-|----...----------|
A|-3-----3-3-3---3-|---3---3---------|-0---0---0-0---2-|-----------------|
E|-1-----1-1-1---1-|---1---1---------|---------------3-|----------------


    Am             Em
Oh, life is bigger, it's bigger than you
             Am                              Em
And you are not me, the lengths that I will go to
                       Am      Em
The distance in your eyes
                    Dm                     G
Oh no I've said too much, I've said it all


                    Am                       Em
That's me in the corner, that's me in the spotlight
              Am                Em
Losing my religion, trying to keep up with you
       Am                        Em
And I don't know if I can do it
                    Dm                     G
Oh no I've said too much, I haven't said enough
                              F                      (G)        Am     (G)
I thought that I heard you laughing, I thought that I heard you sing
  F                    (G) Am        G
I think I thought I saw you try




                                                                                       348
          Am                    Em
Every whisper of every waking hour
                     Am                 Em
I'm choosing my confessions trying to keep an eye on you
         Am                              Em
Like a hurt lost and blinded fool, fool
                    Dm                      G
Oh no I've said too much, I've said it all
            Am                     Em
Consider this, consider this, the hint of the century
            Am               Em
Consider this, the slip that brought me to my knees failed
Am                               Em
What if all these fantasies come flailing around
         Dm       G
Now I've said too much
                               F                      (G)       Am     (G)
I thought that I heard you laughing, I thought that I heard you sing
   F                    (G) Am        G
I think I thought I saw you try


Repeat 2 times:
    1   +   2   +   3   +   4   +     1   +   2   +   3   +   4   +
e|--12--12--12--10--10--10--10--10--|-8---8---8---5---5---5---5---5----|
B|----------------------------------|----------------------------------|
G|o---------------------------------|---------------------------------o|
D|o---------------------------------|---------------------------------o|
A|----------------------------------|----------------------------------|
E|----------------------------------|----------------------------------|


Repeat 2 other times while:
But that was just a dream
That was just a dream

                    Am                          Em
That's me in the corner, that's me in the spotlight
              Am                  Em
Losing my religion, trying to keep up with you
       Am                          Em
And I don't know if I can do it
                    Dm                        G
Oh no I've said too much, I haven't said enough
                                 F                   (G)        Am     (G)
I thought that I heard you laughing, I thought that I heard you sing
  F                     (G) Am         (G)
I think I thought I saw you try
    F                      (G)    Am            (G)
But that was just a dream      Try, cry, why try?
F                      (G)         Am           G
That was just a dream, just a dream, just a dream, dream




                                                                             349
Repeat 3 times
    1   +   2   +   3   +   4   +     1   +   2   +   3   +   4   +
e|--12--12--12--12--12--12--12--12--|-12--12--12--12--12--12--12--12---|
B|----------------------------------|----------------------------------|
G|o---------------------------------|---------------------------------o|
D|o---------------------------------|---------------------------------o|
A|----------------------------------|----------------------------------|
E|----------------------------------|----------------------------------|

                                      slowing down...
    1   +   2   +   3   +   4   +     1   +   2   +   3   +   4   +
e|--12--12--12--12--12--12--12--12--|-12--10----------10---------------|
B|----------------------------------|---------13--10------13--10--13---|-(10)-
G|o---------------------------------|---------------------------------o|
D|o---------------------------------|---------------------------------o|
A|----------------------------------|----------------------------------|
E|----------------------------------|----------------------------------|


Am <- final




                                                                                 350
Radiohead - Karma Police

    Am Am/F# Em     G    F    D   G/F# C    C/B   Bm   F#   E7
e|--0-----0----0----3----1----2----3----0----0----2----2----0--|
B|--1-----1----0----3----1----3----3----1----1----3----2----0--|
G|--2-----2----0----0----2----2----0----0----0----4----3----1--|
D|--2-----x----2----0----3----0----0----2----0----4----4----0--|
A|--0-----0----2----2----3---------x----3----2----2----4----2--|
E|--------2----0----3----1---------2-------------------2----0--|


Intro: (jouer le F# sur la 6e corde en passant de Em à G)

Am         Am/F#         Em              G
Am           F           Em              G
Am           D           G    G/F#       C   C/B
Am                       Bm              D


Am Am/F#          Em
Karma       Police,
  G               Am
Arrest this man,
        F           Em
He talks in maths,
    G                       Am
He buzzes like a fridge
          D    G       G/F#    C     C/B     Am            Bm        D
He's like a detuned radio.

Am Am/F#         Em
Karma      Police,
  G              Am
Arrest this girl,
      F       Em
Her hitler hairdo,
    G                   Am
Is making me feel ill,
      D             G  G/F#   C   C/B             Am            Bm       D
And we have crashed her par_ty____.

C           D            G      F#
This is what you'll get,
C           D            G      F#
This is what you'll get,
C           D            G
This is what you'll get,
            Bm        C       Bm     D
When you mess with us...

Am Am/F#        Em
Karma     Police,
      G                Am
I've given all I can,
        F         Em
It's not enough,
      G                Am
I've given all I can,
          D          G G/F# C C/B Am         Bm        D
But we're still on the pay___roll.

                                                                             351
C           D            G     F#
This is what you'll get,
C           D            G     F#
This is what you'll get,
C           D            G
This is what you'll get,
         Bm        C     Bm       D
When you mess with us...

Bm      D             G
And for a minute there,
      D      G      D      E7
I lost myself I lost myself,
Bm      D             G
And for a minute there,
      D      G      D      E7
I lost myself I lost myself,

Bm      D             G
And for a minute there,
      D      G      D       E7
I lost myself I lost myself,
Bm        D           G
Just for a minute there,
        D      G      D        E7
I lost myself I lost myself

Bm     D      G       D       G       D   E7
(jusqu'à la fin)




                                               352
Red Hot Chili Peppers - Under the bridge

Se joue généralement avec un capot à la 2e frette

Intro:

   D                                 F#
   1 - + - 2 - + - 3 - + - 4 - + -   1 - + - 2 - + - 3 - + - 4 - + -
e|---------------------------------|---------------------------------|
B|-3-------------3-----------------|-2-------------------------------|
G|---------2---------2-------------|---------------3-----------------|
D|-----4-------4-------------------|---------4---------4-----4-2-----|
A|-5-----------------------4-2-----|-----4-------4---------------5-2-|
E|-----------------------------5-4-|-2-------------------------------|

   D                                   F#
   1 - + - 2 - + -   3 - + - 4 - + -   1 - + - 2 - + - 3 - + - 4 - + -
e|-----------------------------------|---------------------------------|
B|-3-------------3h5p3---------------|-2-------------------------------|
G|---------2-----------2-------------|---------------3-----------------|
D|-----4-------4-------------4--/6---|---------4---------4-----4-2-----|
A|-4/5---5-------------------5--/7---|-----4-------4---------------5-2-|
E|-----------------------------------|-2-------------------------------|

   D                                 F#
   1 - + - 2 - + - 3 - + - 4 - + -   1 - + - 2 - + - 3 - + - 4 - + -
e|---------------------------------|---------------------------------|
B|-3-------------3-----------------|-2-------------------------------|
G|---------2---------2-------------|---------------3-----------------|
D|-----4-------4-------------------|---------4---------4-----4-2-----|
A|-4/5---5-----------------4-2-----|-----4-------4---------------5-2-|
E|-----------------------------5-4-|-2-------------------------------|

   D                                   F#
   1 - + - 2 - + -   3 - + - 4 - + -   1 - + - 2 - + - 3 - + - 4 - + -
e|-----------------------------------|---------------------------------|
B|-3-------------3h5p3---------------|-2-------------------------------|
G|---------2-----------2-------------|---------------3---------3-------|
D|-----4-------4-------------4--/6---|---------4---------4-------4-----|
A|-4/5---5-------------------5--/7---|-----4-------4-------4-------4---|
E|-----------------------------------|-2-------------------------------|



Riff 1:

    E               B                   C#m              A
    1 - + - 2 - + - 3 - + - 4 - + -     1 - + - 2 - + - 3 - + - 4 - + -
e|--7-----7-7---7-------7-------------|-7/9--9---9---4-------5---5h7p5-----|
B|--9-----9-9---7-------7-------------|-7/9--9---9---4-------5---|___|-5---|
G|o-9-----9-9---8-------8---8h9p8-----|-7/9--9---9---5-------6-----3-------|
D|o-9-----9-9---9-------9---|___|-9---|-9/11-11--11--6-------7-------------|
A|--7-----7-7---9-------9-----3-------|-9/11-11--11--6-------7-------------|
E|--------------7-------7-------------|-7/9--9---9---4-------5-------------|




                                                                               353
   E               B                   C#m              A
   1 - + - 2 - + - 3 - + - 4 - + -     1 - + - 2 - + - 3 - + - 4 - + -
e|-7-----7-7---7-------7-------------|-7/9--9---9---5-------5------------|
B|-9-----9-9---7-------7-------------|-7/9--9---9---5-----------5--------|
G|-9-----9-9---8-------8---8h9p8-----|-7/9--9---9---6---------------6---o|
D|-9-----9-9---9-------9---|___|-9---|-9/11-11--11--7-------------------o|
A|-7-----7-7---9-------9-----3-------|-9/11-11--11--7--------------------|
E|-------------7-------7-------------|-7/9--9---9---5--------------------|

   E
   1 - + - 2 - + - 3 - + - 4 - + -   1 - + - 2 - + - 3 - + - 4 - + -
e|-7-------------------------------|---------------------------------|
B|-9-------------------------------|---------------------------------|
G|-9-------------------------------|---------------------------------|
D|-9-------------------------------|---------------------------------|
A|-7-------------------------------|---------------------------------|
E|---------------------------------|---------------------------------|


Riff 2:
    F#m             E                 B               F#m
    1 - + - 2 - + - 3 - + - 4 - + -   1 - + - 2 - + - 3 - + - 4 - + -
e|------9---x---9---7-------7-------|-7-7-7-7-7---9---9---9---9--------|
B|------10--x---10--9-------9-------|-7-7-7-7-7---10--10--10--10-------|
G|o-----11--x---11--9-------9-------|-8-8-8-8-8---11--11--11--11------o|
D|o-----11--x---11--9-------9-------|-9-9-9-9-9---11--11--11--11------o|
A|------9---x---9---7-------7-------|-9-9-9-9-9---9---9---9---9--------|
E|----------------------------------|-7-7-7-7-7------------------------|


Riff 1 (plus molo)   ==> 2x

Sometimes I feel
Like I don't have a partner
Sometimes I feel
Like my only friend
Is the city I live in
The city of angels
Lonely as I am
Together we cry


Riff 1 (normal) ==> 2x

I drive on her streets
'Cause she's my companion
I walk through her hills
'Cause she knows who I am
She sees my good deeds
And she kisses me windy
I never worry
Now that is a lie


Riff 2 ==> 2x

I don't ever want to feel
Like I did that day
Take me to the place I love
Take me all the way

                                                                             354
Riff 1 ==> 1x


Riff 1 ==> 2x

It's hard to believe
That there's nobody out there
It's hard to believe
That I'm all alone
At least I have her love
The city she loves me
Lonely as I am
Together we cry


Riff 2 ==> 2x

I don't ever want to feel
Like I did that day
Take me to the place I love
Take me all that way

A    C        G    Fmaj7
Yeaaaaaaah    Yeaaaaaaah
A    C        G    Fmaj7
Oh   nonono   yeaaaaaah
A    C        G    Fmaj7
Love, I say   yeaaaaaah
F             Em   G
One time


A    C    G      Fmaj7     ==> 12x

Under the bridge downtown
Is where I drew some blood
Under the bridge downtown
I could not get enough
Under the bridge downtown
Forgot about my love
Under the bridge downtown
I gave my life away

A ==> Final




                                     355
Respectables - Amalgame

      Bm    Em    F#7 Bmsus4 Bmadd9 C#m   F#m   G#7 C#msus4
e|----7-----7-----------7------7-----9-----9-----------9----
B|----7-----8-----7-----7------7-----9-----10----9-----9----
G|----7-----9-----9-----9------7-----9-----11----11----11---
D|----9-----9-----8-----9------11----11----11----10----11---
A|----9-----7-----9-----9------9-----11----9-----11----11---
E|----7-----------------7------7-----9-----------------9----


Intro:

   Bm                Em                F#7               Bmsus4 Bm
   1 + 2 + 3 + 4 +   1 + 2 + 3 + 4 +   1 + 2 + 3 + 4 +   1 + 2 + 3 + 4 +
e|-----------------|-----------------|-----------------|-----------------|
B|-----------------|/10----8-8-------|-----------------|-8-----7-7-------|
G|-------------6-7-|-----------------|-------------6---|-----------------|
D|-9---------9-----|-----------------|-8-------------8-|-----------------|
A|-----------------|-----------------|-----------9-----|-----------------|
E|-----------------|-----------------|-----------------|-----------------|

   Bm                Em                F#7               Bmsus4 Bm
   1 + 2 + 3 + 4 +   1 + 2 + 3 + 4 +   1 + 2 + 3 + 4 +   1 + 2 + 3 + 4 +
e|-----------------|-----------------|-----------------|-----------------|
B|-----------------|/10----8-8-------|-----------------|-----------------|
G|-------------6-7-|-----------------|-------------6-7-|-----------------|
D|/9---------9-----|-----------------|-8---------------|-9---------------|
A|-----------------|-----------------|-----------9-----|-----------------|
E|-----------------|-----------------|-----------------|-----------------|


   Bm                      Em
Oh non, déjà sept heures du matin
                      F#7
Encore une fois, mais c'est en vain
                      Bmsus4 Bm
Je me fais croire que tout va bien
Bm                     Em
Autour de nous le vide qui guette
       F#7                         Bmsus4 Bm
Chaque jour, c'est un autre coeur qui s'arrête
   Bm                              Em
Et puis, c'est sûrement pas ça la vie, non
                  F#7
Le métro-boulot-dodo et les maîtresses aux grosses fesses
      Bmsus4 Bm
C'est l'ennui


F#7           Bmsus4 Bm   Bmadd9   Bm
Oh manana qui sas
Em                  F#7 (première mesure du solo)
Oh, no sere no mas aqui




                                                                             356
Bm              Em
Moi, je suis un amalgame
F#7      Bmsus4 Bm
Éternellement malade
Bm             Em
Comme si je n'avais plus d'âme
F#7           Bmsus4 Bm
Ma vie est un drame


Bm                            Em
Noirci par les couleurs de la nuit
F#7                    Bmsus4 Bm
Blanchi par le silence et l'ennui
   Bm                        Em
Enfin je peux vider mes lendemains
                            F#7
Et toujours croire que je détiens la vérité
                       Bmsus4 Bm
Et mon destin et que je te tiens

F#7           Bmsus4 Bm    Bmadd9   Bm
Oh manana qui sas
Em                  Bm
Oh, no sere no mas aqui
F#7           Bmsus4 Bm    Bmadd9   Bm
Oh manana qui sas
Em                  F#7
Oh, no sere no mas aqui

Solo:

   F#7               Bm
   1 + 2 + 3 + 4 +   1 - + - 2 - + - 3 - + - 4 - + -
e|-----------------|b10-(slow-release-à-9)--------10------|
B|-----------------|---------------------10-12-12---------|
G|-----------------|--------------------------------------|
D|-----------------|--------------------------------------|
A|-------4-7-5-4-5-|--------------------------------------|
E|---2-6-----------|--------------------------------------|

   Em                                 F#7
   1 - + - 2 - + - 3 - + - 4 - + -    1 - + - 2 - + - 3 - + - 4 - + -
e|---------------------------------|(7h9)-----------------(10h12)-----|
B|-12-(slow-bend-à-14)-------------|----------------------------------|
G|---------------------------------|----------------------------------|
D|---------------------------------|----------------------------------|
A|---------------------------------|----------------------------------|
E|---------------------------------|----------------------------------|

   Bmsus4          Bm                Bm
   1 - + - 2 - + - 3 - + - 4 - + -   1 - + - 2 - + - 3 - + - 4 - + -
e|-10----------12-(slow-bend-à-14)-|------17p15--------------17----------|
B|---------------------------------|---------------------17-----17-15-17-|
G|---------------------------------|-------------------------------------|
D|---------------------------------|-------------------------------------|
A|---------------------------------|-------------------------------------|
E|---------------------------------|-------------------------------------|




                                                                             357
      Em
      1 - + - 2 - + -        3 - + - 4 - + -
e|-------------------------------------------|
B|(15h17)---------15-17-(15h17)----------15--|
G|-------------------------------------------|
D|-------------------------------------------|
A|-------------------------------------------|
E|-------------------------------------------|

   F#7                               Bmsus4
   1 - + - 2 - + - 3 - + - 4 - + -   1 ...
e|---------------------(10h12)-----|-10-----
B|-14------(11h12)-11--------------|--------
G|---------------------------------|--------
D|---------------------------------|--------
A|---------------------------------|--------
E|---------------------------------|--------


Version acoustique:

   F#7               Bm
   1 + 2 + 3 + 4 +   1 - + - 2 - + - 3 - + - 4 - + -
e|-----------------|---------------------------------|
B|-----------------|---------------------------------|
G|-----------------|-7-------------------------7-----|
D|-----------------|---------------------7-9-9-------|
A|-------4-7-5-4-5-|---------------------------------|
E|---2-6-----------|---------------------------------|

   Em                                 F#7
   1 - + - 2 - + - 3 - + - 4 - + -    1 - + - 2 - + - 3 - + - 4 - + -
e|---------------------------------|----------------------------------|
B|---------------------------------|----------------------------------|
G|---------------------------------|-----------------------(7h9)------|
D|-9-(slow-slide-à-11)-------------|(9h11)----------------------------|
A|---------------------------------|----------------------------------|
E|---------------------------------|----------------------------------|

   Bmsus4          Bm                Bm
   1 - + - 2 - + - 3 - + - 4 - + -   1 - + - 2 - + - 3 - + - 4 - + -
e|---------------------------------|---------------------------------|
B|---------------------------------|------10p7---------------7-------|
G|-7-----------9-(slow-slide-à-11)-|---------------------9-----9-7-9-|
D|---------------------------------|---------------------------------|
A|---------------------------------|---------------------------------|
E|---------------------------------|---------------------------------|

      Em
      1 - + - 2 - + -    3 - + - 4 - + -
e|---------------------------------------|
B|---------------------------------------|
G|-(7h9)----------7-9-(7h9)----------7---|
D|---------------------------------------|
A|---------------------------------------|
E|---------------------------------------|




                                                                          358
   F#7                               Bmsus4
   1 - + - 2 - + - 3 - + - 4 - + -   1 ...
e|---------------------------------|--------
B|---------------------------------|--------
G|-6--------------------(7h9)------|-7------
D|----------(8h9)--8---------------|--------
A|---------------------------------|--------
E|---------------------------------|--------


Bm              Em
Moi, je suis un amalgame
F#7      Bmsus4 Bm
Éternellement malade
Bm             Em
Comme si je n'avais plus d'âme
F#7
...

   C#m                      F#m
Oh my! Encore cinq heures du matin
                             G#7                        C#msus4 C#m
Voulez-vous ben, voulez-vous ben me laisser tranquille, tout va bien
           C#m
Quand ce soir sera mort, j'aurai bien des remords
       F#m
Et si demain s'éteint, je poserai sur mon chemin
       G#7
Pour assurer mon destin

Une petite bleue est noir, qui saura bien me recevoir...

C#m             F#m
Moi, je suis un amalgame
G#7      C#msus4 C#m
Éternellement malade
C#m            F#m
Comme si je n'avais plus d'âme
G#7           C#msus4 C#m
Ma vie est un drame

C#m                                          F#m
manana qui sas, manana qui sas, manana qui   sas,
                                G#7               C#msus4 C#m
manana qui sas, manana qui sas, no sere no   mas aqui
C#m                                          F#m
manana qui sas, manana qui sas, manana qui   sas,
                                G#7               C#msus4 C#m
manana qui sas, manana qui sas, no sere no   mas aqui

   C#m     F#m     G#7    C#msus4 C#m
Oh non,          encore
   C#m     F#m     G#7    C#msus4 C#m
Oh non,          encore




                                                                       359
   C#m                               F#m
   1 - + - 2 - + - 3 - + - 4 - + -   1 - + - 2 - + - 3 - + - 4 - + -
e|---------------------------------|---------------------------------|
B|---------------------------------|---------------------------------|
G|-4/6-6-6-6/8-8-8-8/9-9-9-9/111111|-4/6-6-6-6/8-8-8-8/9-9-9-9/111111|
D|---------------------------------|---------------------------------|
A|-2/4-4-4-4/6-6-6-6/7-7-7-7/9-9-9-|-2/4-4-4-4/6-6-6-6/7-7-7-7/9-9-9-|
E|---------------------------------|---------------------------------|

   G#7                               C#msus4         C#m
   1 - + - 2 - + - 3 - + - 4 - + -   1 - + - 2 - + - 3 - + - 4 - + -
e|---------------------------------|---------------------------------|
B|---------------------------------|---------------------------------|
G|-11------11--1111--11111111111111|-11------11--119---9-9-9-9-9-9-9-|
D|---------------------------------|---------------------------------|
A|-9-------9---9-9---9-9-9-9-9-9-9-|-9-------9---9-7---7-7-7-7-7-7-7-|
E|---------------------------------|---------------------------------|

jusqu'à la fin (fade out)




                                                                         360
Respectables - La Java

   Gm              Cm
e|-3----10----11-|-3----8-----11-|
B|-3-------11----|-4-------8-----|
G|-3-------------|-5-------------|
D|-5-------------|-5-------------|
A|-5-------------|-3-------------|
E|-3-------------|---------------|

  Eb7                           D7
e|------9-----11----11-9--11--|------8-----10----14-10-14--|
B|-4-------8------------------|-3-------7------------------|
G|-6--------------------------|-5--------------------------|
D|-5-----couplet-----refrain--|-4-----couplet-----refrain--|
A|-6--------------------------|-5--------------------------|
E|----------------------------|----------------------------|


Rythme de base:
 1 + 2 + 3 + 4 +
 x   x x   x x x


Intro:
Gm

      Gm                                   Cm
Oh darling, avant que je ne parte dans les ruines de la cité
          Gm                  Cm
Avant que le soleil, avant de te quitter pour le monde et les bruits de la cité
           Gm
Laisse-moi te donner un peu d'amour
              Eb7        D7                   Gm
Qu'on nous laisse s'aimer jusqu'à la fin, jusqu'au matin
              Eb7   D7                 Gm
D'un amour condamné, mais garde-moi jusqu'à demain


                       Eb7   Db7         Gm
Quand je ne serai plus là,       no more Java
                       Eb7   Db7         Gm
Quand je ne serai plus là,       seul le son de cette mélodie


      Gm                             Cm
Oh Darling, antes que me vaya en las ruinas de la ciudad
      Gm                                Cm
Antes que el sol se despierte, antes de dejarte para el mundo,
  los ruinos, las historias de la ciudad!
           Gm
Pues, deja me darte todo mi amor
          Eb7          D7                      Gm
Que nos dejen querernos hasta el fin hasta la manana
              Eb7         D7            Gm
De un amor condenado pero cuidame hasta manana




                                                                                  361
               Eb7 Db7        Gm
Cuando ya no estare,   no mas java
               Eb7 Db7             Gm
Cuando ya no estare,   solo el son de esta melodia


Riff:
    Gm            Bb    Cm
    1 2 3 4       1 2 3 4
e|-----11-10----|----------10--|
B|--------------|-11----13-----|
G|o-12-------12-|----12-------o|
D|o-------------|-------------o|
A|--------------|--------------|
E|--------------|--------------|


Gm       Bb         Cm     Gm       Bb         Cm
     I believe in   you,      you believe in me
Gm       Bb         Cm     Gm       Bb         Cm
     I believe in   you,      you believe in me
Gm        Bb               Cm      Gm       Bb             Cm
     Lord believe   in our love,       Lord believe in our love
Gm        Bb               Cm      Gm       Bb             Cm
     Lord believe   in our love,       Lord believe in our love
Gm       Bb         Cm     Gm       Bb         Cm
     I believe in   you,      you believe in me
Gm       Bb         Cm     Gm       Bb         Cm   Eb7    Db7    Gm
     I believe in   you,      you believe in me


                Eb7 stop... Db7
Cuando ya no estare
                Eb7 stop... Db7
Cuando ya no estare
       Gm
no mas java


Gm         Gm <- final




                                                                       362
Respectables - Libre

Intro:
D         Bb      D       Bb


D                               Dmaj7
  T'as pas idée de c'que ça m'fait
                                  Em
Quand on m'raconte que j't'étouffais
                              F#
Qu'ta vie sans moi c'est le bonheur
D                             Bm
  Hier j't'ai vue seule avec lui
                           Em
Y'avait une main sur ton épaule
                       F#
Une vraie décharge électrique

J'me console car au moins


D           G       F
Moi je suis libre
D                 C                      Bb                  C
  Libre de tomber, libre de plonger pour quelqu'un d'autre


D                                  Dmaj7
    Malgré toute cette belle volonté
                                         Em
Des jours j'sais même plus que je suis né
                             F#
J'ai un urgent besoin d'bonheur
D                                      Bm
  Aujourd'hui j'vois bien que c'est fini
                                  Em
J'imagine tout ce qu'il doit te faire
                         F#
J'ai pas dormi encore hier
                                   D     Bb
J'suis pas jaloux, mais j'suis menteur
                       D       Bb
Ça m'a fait un trou au coeur
C                                   A
  T'avais mon respect, mais maintenant


D           G       F
Moi je suis libre
D                 C                      Bb                  C
  Libre de tomber, libre de plonger pour quelqu'un d'autre
D           G       F
Moi je suis libre
D                   C                Bb                 C
  Libre de chanter, libre de rêver à quelqu'un d'autre


D         Bb      D       Bb


                                                                 363
C                                    A
    T'avais mon respect, mais maintenant


E           A       G
Moi je suis libre
E                   D                     C                  D
  Libre de tomber, libre de plonger pour quelqu'un d'autre
E           A       G
Moi je suis libre
E                 D                     C                  D
  Libre de rêver, libre de chanter pour quelqu'un d'autre


E           A       G
Moi je suis libre
E                   D                     C                 D
  Libre de tomber, libre de plonger pour quelqu'un d'autre
E           A       G
Moi je suis libre
E                 D                     C                        D
  Libre de rêver, libre de chanter pour quelqu'un, je suis libre, je suis libre

E                        A     G
  Je suis libre, je suis libre
E                  D                C                        D
  Libre de chanter, libre de rêver, libre, libre, libre, libre
    E     A <- final
Libre




                                                                                  364
Respectables - Ma vie à l'heure

      E   G#m/D# C#m   F#m    B    G#m   G#7    Bx    A     G#
e|----4-----4-----4-----2-----2-----4-----4-----7-----5-----4----
B|----5-----4-----5-----2-----4-----4-----4-----7-----5-----4----
G|----4-----4-----6-----2-----4-----4-----5-----8-----6-----5----
D|----6-----6-----6-----4-----4-----6-----4-----9-----7-----6----
A|----7-----6-----4-----4-----2-----6-----6-----9-----7-----6----
E|----------------------2-----------4-----4-----7-----5-----4----


Riff 1:
   E                                 G#m/D#
   1 - + - 2 - + - 3 - + - 4 - + -   1 - + - 2 - + - 3 - + - 4 - + -
e|---------------------------------|---------------------------------|
B|---------------------------------|---------------------------------|
G|---------------------------------|---------------------------------|
D|---------------------------------|---------------------------------|
A|-----------------------------7---|/6---------------------------7---|
E|-0--------------/4-----7---------|----------------/4-----7---------|

   C#m                               F#m             B
   1 - + - 2 - + - 3 - + - 4 - + -   1 - + - 2 - + - 3 - + - 4 - + -
e|---------------------------------|---------------------------------|
B|---------------------------------|---------------------------------|
G|---------------------------------|---------------------------------|
D|/6-------------------------------|---------------------------------|
A|-----------------------------7---|-5---------------7-6-------4-----|
E|----------------/4-----7---------|-----------------------4---------|

E                                     G#m/D#
    L'autre soir j'ai recu un appel
                                      C#m
On m'invitait à prendre le large
                                   F#m
Une p'tite coquine que je désirais
             B                      E
Depuis l'secondaire s'il vous plait
                                   G#m/D#
Mais j'savais pas trop quoi penser
                                 C#m
Tsé la liberté ça m'faisait peur
                                       F#m
Ça me donne la frousse de tout quitter
                 B             E
Mais cette fille-là je l'ai au coeur


Riff 1:
E             G#m/D#      C#m            F#m   B


E                                  G#m/D#
    J'ai fait le tour de mon école
                                       C#m
J'sais pas vraiment c'qui m'intéresse
                                   F#m
Toujours assis sur mes deux fesses
                   B                Bx     A       G#m
J'crois que j'vais tout laisser tomber

                                                                         365
E
    Cette fois viens je t'emmène, le soleil brillera pour nous deux
A
    J'attendais de tes nouvelles, j'attendais ton appel
E
    Goodbye à mes vrais amis, en vérité je vous le dis
A
    Je remets ma vie à l'heure, je remets ma vie à l'heure


E                                 G#m/D#
    J'ai décidé d'l'accompagner
                                  C#m
D'aller faire un p'tit tour dans l'Ouest
                          F#m
Le mot liberté me revient
                B                   E
J'suis de Québec et j'm'en souviens
                                G#m/D#
J'pourrais toujours ben revenir
                                   C#m
Faut pas partir dans cet esprit là
                                       F#m
S'il y a des choses qui m'plaisent ici
                  B
Elles s'ront plus belles vues de là-bas


E
    Cette fois viens je t'emmène, le soleil brillera pour nous deux
A
    J'attendais de tes nouvelles, j'attendais ton appel
E
    Goodbye à mes vrais amis, en vérité je vous le dis
A
    Je remets ma vie à l'heure, je remets ma vie à l'heure
E
    Cette fois viens je t'emmène, le soleil brillera pour nous deux
A
    Je remets ma vie à l'heure, je remets ma vie à l'heure


F#m                C#m           B
   Peut-être qu'il faut s'enfuir loin de son passé
G#             C#m         B
   Toujours partir afin de mieux se retrouver


Riff 1: 2x
E             G#m/D#      C#m              F#m   B
E             G#m/D#      C#m              F#m   B


En jouant les accords juste une fois (sans rythme):




                                                                      366
E                                    G#m/D#
    So aujourd'hui nous vlà partis
                                                C#m
J'sais pas vraiment c'que je m'en vais faire
                                   F#m
J'suis pas si pressé de le trouver
         B                Bx        A   G#m      A     Bx   A   G#m
Je serai patient pour lui plaire


E
    Cette fois viens je t'emmène, le soleil brillera pour nous deux
A
    J'attendais de tes nouvelles, j'attendais ton appel
E
    Goodbye à mes vrais amis, en vérité je vous le dis
A
    Je remets ma vie à l'heure, je remets ma vie à l'heure
E
    Cette fois viens je t'emmène, le soleil brillera pour nous deux
A
    J'attendais de tes nouvelles, j'attendais ton appel
E
    Goodbye à mes vieux amis, en vérité je vous le dis
A
    Je remets ma vie à l'heure, à l'heure, à l'heure, à l'heure


E     A   jusqu'à la fin avec tututududu tu tu tu...

    1 - + - 2 - + - 3 - + - 4 - + -   1 - + - 2 - + - 3 - + - 4 - + -
e|----------------------------------|-----------------------7----------|
B|----------------------------------|------------------7/9----9\7-5----|
G|o---------------------------------|---------------------------------o|
D|o---------------------------------|---------------------------------o|
A|----------------------------------|----------------------------------|
E|----------------------------------|----------------------------------|




                                                                           367
Respectables - Souviens-toi

Shuffle beat

     Ebm7 Ab7/Eb Cm     G     Ab    Fm    Cmx   C     Em    F     Gx     D     Dm    A
e|----9-----8-----3-----3-----4-----1-----8-----8-----7-----8-----10-----8-----8-----5----
B|----7-----7-----4-----3-----4-----1-----8-----8-----8-----10----12-----8-----8-----5----
G|----8-----8-----5-----4-----5-----1-----8-----9-----9-----10----12-----9-----8-----6----
D|----x-----x-----5-----5-----6-----3-----10----10----9-----10----12-----10----10----7----
A|----6-----6-----3-----5-----6-----3-----10----10----7-----8-----10-----10----10----7----
E|----------------------3-----4-----1-----8-----8------------------------8-----8-----5----


Rythme de base

couplet
   1    + 2  + 3   + 4   +   1   + 2   + 3   + 4   +
e|-------9---9-----9-9---9-|-------9-----9---9-9---9-|
B|-------7---7-----7-7---7-|-------7-----7---7-7---7-|
G|-------8---9-----8-8---8-|-------8-----8---8-8---8-|
D|-------------------------|-------------------------|
A|-6-----------------------|-6-----------------------|
E|-------------------------|-------------------------|

Pré-refrain
    Cm                        G
    1   + 2   + 3   + 4   +   1   + 2   + 3   + 4   +
e|------------3-------------|-----------3--------------|
B|------------------4-------|-----------------3--------|
G|o-------5-----------------|-------4-----------------o|
D|o-5-----------------------|-5-----------------------o|
A|--------------------------|--------------------------|
E|--------------------------|--------------------------|

couplet 2
   1   + 2   + 3   + 4   +   1   + 2   + 3   + 4   +
e|-----------9-------------|-------------9-----------|
B|-----------------7-------|-----------------7-----7-|
G|-------8---------------8-|-------8-----------8-----|
D|-------------------------|-------------------------|
A|-6-----------------------|-----6-------------------|
E|-------------------------|-------------------------|



Intro:

Ebm7     Ab7/Eb   Ebm7   Ab7/Eb

Ebm7                               Ab7/Eb
     Les nouvelles m'annoncent que l'amour est tranquille
Ebm7                        Ab7/Eb
     On ne pourra s'envoler
Ebm7                       Ab7/Eb
     Que la température intérieure qui m'excite
Ebm7                     Ab7/Eb
     Ne saura t'emballer




                                                                                         368
Cm                    G           Cm              G
   Faut croire que les années qui filent et se défilent
Cm            G            Cm              G
   Auront eu raison de nos espoirs qui s'abîment
       G# Fm Cm
Is it o__ver now?


C     Em    F
  Hey yeah yeah
         Gx
Souviens-toi de nos promesses
C     Em    F
  Hey yeah yeah
          G
Oublie les histoires de...


Ebm7    Ab7/Eb   Ebm7   Ab7/Eb


Ebm7                            Ab7/Eb
     Nous revoilà plongés dans le coeur de nos peines
Ebm7                        Ab7/Eb
     Mais qui aura eu raison?
Ebm7                          Ab7/Eb
     Avant qu'un autre orage encore se déchaîne
Ebm7                              Ab7/Eb
     Faudrait retrouver la raison

Cm                 G          Cm             G
   Pourtant nous persistons à rejeter le mal
Cm               G                  Cm                 G
   Sur l'autre, jusqu'à ce que nous nous sentions égal
       G# Fm Cm
Is it o__ver now?


C     Em    F
  Hey yeah yeah
         Gx
Souviens-toi de nos promesses
C     Em    F
  Hey yeah yeah
         Gx
Afin de sauver ce qu'il en reste
C     Em    F
  Hey yeah yeah
         Gx
Souviens-toi de nos promesses
C     Em    F
  Hey yeah yeah


Solo:




                                                           369
   F                         D
   1   + 2   + 3   + 4   +   1   + 2   + 3   + 4   +   1   + 2   + 3   + 4   +
e|-------12b13r12----10----|-10----------------------|-------10----13-12-10----|
B|-------------------------|-------------------------|-------------------------|
G|-------------------------|-------------------------|-------------------------|
D|-------------------------|-------------------------|-------------------------|
A|-------------------------|-------------------------|-------------------------|
E|-------------------------|-------------------------|-------------------------|

   Dm                                                  D
   1   + 2   + 3   + 4   +   1   + 2   + 3   + 4   +   1   + 2   + 3   + 4   +
e|10b13--------------------|-------10----13--15----15|b17----10----------------|
B|-------------------------|-------------------------|-------------------------|
G|-------------------------|-------------------------|-------------------------|
D|-------------------------|-------------------------|-------------------------|
A|-------------------------|-------------------------|-------------------------|
E|-------------------------|-------------------------|-------------------------|

                             Dm
   1   + 2   + 3   + 4   +   1   + 2   + 3   + 4   +   1   + 2   + 3   + 4   +
e|-------12b13r12----------|-------------------------|-------------------------|
B|-------------------13b15r|13-----------------------|-------------------------|
G|-------------------------|-------------------------|-------------------------|
D|-------------------------|-------------------------|-------------------------|
A|-------------------------|-------------------------|-------------------------|
E|-------------------------|-------------------------|-------------------------|

   F                                                   D
   1   + 2   + 3   + 4   +   1   + 2   + 3   + 4   +   1   + 2   + 3   + 4   +
e|15b17--------------13----|-15--------13------------|15b17--------------14----|
B|-------------------------|-----15------------------|-------------------------|
G|-------------------------|-------------------------|-------------------------|
D|-------------------------|-------------------------|-------------------------|
A|-------------------------|-------------------------|-------------------------|
E|-------------------------|-------------------------|-------------------------|

                             A
   1   + 2   + 3   + 4   +   1   + 2   + 3   + 4   +   1   + 2   + 3   + 4   +
e|-10----------------------|-12----------------------|----------12b13----------|
B|-------------------------|-------------------------|-------------------13----|
G|------------------/12----|-------------------------|-------------------------|
D|-------------------------|-------------------------|-------------------------|
A|-------------------------|-------------------------|-------------------------|
E|-------------------------|-------------------------|-------------------------|

   C                                                   G
   1   + 2   + 3   + 4   +   1   + 2   + 3   + 4   +   1   + 2   + 3   + 4   +
e|-------------------------|-------------------------|-------------------------|
B|-------------------------|-------------------------|-12----------------------|
G|-12----------------------|-------------------------|-------------------------|
D|-------------------------|------------------/12----|-------------------------|
A|-------------------------|-------------------------|-------------------------|
E|-------------------------|-------------------------|-------------------------|




                                                                                   370
   1   + 2   + 3   + 4   +   1   + 2   + 3   + 4   +
e|-------------------------|-------------------------|
B|-12b13r12b13r12b13r12b13b|15-----------------------|
G|-------------------------|-------------------------|
D|-------------------------|-------------------------|
A|-------------------------|-------------------------|
E|-------------------------|-------------------------|


couplet 2:

Ebm7    Ab7/Eb   Ebm7   Ab7/Eb


Ebm7                                Ab7/Eb
     Mais si tu crois toujours que l'amour qui nous hante
Ebm7                      Ab7/Eb
     Ne dit pas la vérité
Ebm7                             Ab7/Eb
     Si tu penses aussi que nos sentiments se mentent
Ebm7                                 Ab7/Eb
     C'est que tu commences à douter

Cm           G           Cm               G
   Je m'exposerai à toi, simple et dénudé
Cm               G              Cm               G
   Ne te laissant d'autre choix que de m'écouter
       G# Fm Cm
Is it o__ver now?


C     Em    F
  Hey yeah yeah
         Gx
Souviens-toi de nos promesses
C     Em    F
  Hey yeah yeah
         Gx
Afin de sauver ce qu'il en reste
C     Em    F
  Hey yeah yeah
         Gx
Souviens-toi de nos promesses
C     Em    F
  Hey yeah yeah
          G
Oublie les histoires de...
C     Em    F    Gx
  Hey yeah yeah
C     Em    F    Gx
  Hey yeah yeah


Couplet 1:

Ebm7
Singing songs I know... singing songs...




                                                            371
Richard Desjardins - Le Bon Gars

       E     A     B    E7#9
e|-----0-----0-----2-----------|
B|-----0-----2-----4-----8-----|
G|-----1-----2-----4-----7-----|
D|-----2-----2-----4-----6-----|
A|-----2-----0-----2-----7-----|
E|-----0-----------------0-----|


Rythme de base:

    E
    1   + 2   + 3   + 4   +
e|-(0)--0-x---0(0)--0-x---0--|
B|------0-x---0-----0-x---0--|
G|o-----1-x---1-----1-x---1-o|
D|o-----2-x---2-----2-x---2-o|
A|------2-x---2-----2-x---2--|
E|--0-----x-----0-----x------|


Quand [E]j'v'être un bon gars, Pas d'alcool pas d'tabac
M'as rester tranquille, M'as payer mes bills
M'en vas apprendre l'anglais, M'as l'apprendre pour le vrai
Quand j'v'être un bon [A]gars, Pas d'alcool pas d'tabac
M'as mettre des bobettes, M'as lire la gazette
M'as checker les sports, M'as compter les [E]morts
M'as passer [B]mon checkup
M'en va faire mon ketchup
On va voir c'qu'on va voir [B B B B]
M'as m'forcer en ci[E]boire

Quand j'v'être un bon gars
Pas d'alcool pas d'tabac
J'vas avoir l'esprit d'équipe
Impliqué tout' le kit
M'as cramper en masse
M'as m'tailler une place
Quand j'vas être un bon [A]gars
M'as gravir les échelons
M'as comprendre mon patron
M'as faire semblant
Qu'y est intéres[E]sant
L'ar[B]gent va rentrer
Pas trop trop mais steady
Ma photo laminée
" L'employé de l'an[E]née "




                                                              372
Quand j'v'être un bon gars
M'en vas les inviter
M'en vas faire un party
Des sushis des trempettes
Amènes-en m'as n'en mettre
M'as m'en déboucher une
Une fois n'est pas coutume
Ah là tout le monde va [A]s'mettre
Tout le monde va s'mettre à parler
BMW, CLSC, TP4, IBM,
TPS, PME, OCQ, OLP, IGA,
Pis moi su' mon bord
M'as tomber dans [E]l'fort
À [B]onze heures et quart
M'as les crisser dehors
M'as sauter dans mon char
M'as descendre à Val-d'Or [E]

Bon ben là ça va faire
M'as descendre en enfer
M'as flauber ma paye
M'as aller vendre des bouteilles
M'as rouler[A] mon journal
M'as câler l'orignal
M'as virer su'l'top
Pas de cadran pas de ca[E]pote
M'as [B] trouver mon nom
Tatoué su' son front
A va dire: "Aaaaaaahhhhhhhh! [B B B B]
Enfin un bon [E]gars!"

Après ça, après ça, m'en va être un bon gars
Pas d'alcool pas d'tabac
M'as rester tranquille
M'as payer mes bills
M'en vas apprendre l'anglais
M'as l'apprendre pour le vrai
Sport, Smat and Blood
Y vont m'aimer en Hérode
Excellent citoyen
Pas parfait mais pas loin
M'as manger du poisson
M'en va faire du ski d'fond
M'as m'acheter des records
De Michel Rivard
M'as faire semblant
Qu'c'est intéressant
Quand j'v'être un bon gars
Pas d'alcool pas d'tabac    [E7#9]




                                               373
Richard Petit - Niaiseux

Shuffle beat sur les double-croches
Rajouter des coups sur les up en double-croches


Riff 0:
   Dm
   1 - + - 2 - + - 3 - + - 4 - + -   1 - + - 2 - + - 3 - + - 4 - + -
e|-----5-----5-5-5-----5-----5-5-5-|-----5-----5-5-5-----------------|
B|-----6-----6-6-6-----6-----6-6-6-|-----6-----6-6-6-----------------|
G|-----7-----7-7-7-----7-----7-7-7-|-----7-----7-7-7-----------------|
D|-----7-----7-7-7-----7-----7-7-7-|-----7-----7-7-7-----------------|
A|-5---------------5---------------|-5-------------------------------|
E|---------------------------------|-----------------5---3---1---0---|


Riff 1 (couplet)
    Dm                Gm                A#                A
    1 + 2 + 3 + 4 +   1 + 2 + 3 + 4 +   1 + 2 + 3 + 4 +   1 + 2 + 3 + 4 +
e|----5---5---5---5-|---5---5---5---5-|---6---6---6---6-|---5---5----------|
B|----6---6---6---6-|---5---5---5---5-|---6---6---6---6-|---5---5----------|
G|o---7---7---7---7-|---5---5---5---5-|---7---7---7---7-|---6---6---------o|
D|o---7---7---7---7-|---7---7---7---7-|---8---8---8---8-|---7---7---------o|
A|--5-------5-------|-----7-------7---|-----8-------8---|-----7------------|
E|------5-------5---|-5-------5-------|-6-------6-------|-5-------5-3-1-0--|


Riff 2 (juste avant refrain)
   Dm                Gm                A#                A
   1 + 2 + 3 + 4 +   1 + 2 + 3 + 4 +   1 + 2 + 3 + 4 +   1 + 2 + 3 + 4 +
e|---5---5---5---5-|---5---5---5---5-|---6---6---6---6-|---5---5---5-6-7-|
B|---6---6---6---6-|---5---5---5---5-|---6---6---6---6-|---5---5---5-6-7-|
G|---7---7---7---7-|---5---5---5---5-|---7---7---7---7-|---6---6---6-7-8-|
D|---7---7---7---7-|---7---7---7---7-|---8---8---8---8-|---7---7---7-8-9-|
A|-5-------5-------|-----7-------7---|-----8-------8---|-----7-----7-8-9-|
E|-----5-------5---|-5-------5-------|-6-------6-------|-5-------5-5-6-7-|


Intro :

Riff 0 1x   : Dm
Riff 1 2x   : Dm     Gm      A#      A
              Dm     Gm      A#      A


Dm                                     Gm
   Pourquoi qu’on s’prendrait pas une chambre dans un motel
A#                                      A
   Pis d’s'enfermer rien que tous les deux
Dm                                  Gm
   Oui ça serait drôle, m’semble ça ferait des étincelles
A#                                  A
   Ça jetterait un peu d’huile su’l feu




                                                                               374
C                                Em
   Quand j’te vois tout deviens tendre
Am                                  Dm
   Le temps s’arrête et c’est tant mieux
F                      C    B      Bb A
   C’est toi l’soleil, même quand il pleut
Dm             G                 C
   Quand j’te vois j’deviens niaiseux


Dm                                    Gm
   Mais quand j’te vois couchée comme ça m’a p’tite sauterelle
A#                               A
   Oh endormie sous tes p’tits yeux
Dm                         Gm
   Oh oui j’te vois comme Alice dans ses merveilles
A#                            A
   Oh en rêvant de jours heureux


C                                   Em
     Quand j’te vois l’amour m’rend fou
Am                                      Dm
   Comme dix mille tours dans la grande roue
F                      C    B      Bb A
   C’est toi l’soleil, même quand il pleut
Dm             G                 C
   Quand j’te vois j’deviens niaiseux


F                          Am                   C                G
F                          C     B   Bb A       Dm               G
C


Dm                                    Gm
   Mais quand j’te vois couchée comme ça m’a p’tite sauterelle
A#                               A
   Oh endormie sous tes p’tits yeux
Dm                         Gm
   Oh oui j’te vois comme Alice dans ses merveilles
A#                            A
   Oh en rêvant de jours heureux


C                                   Em
     Quand j’te vois l’amour m’rend fou
Am                                      Dm
   Comme dix mille tours dans la grande roue
F                      C    B      Bb A
   C’est toi l’soleil, même quand il pleut
Dm             G                 C
   Quand j’te vois j’deviens niaiseux
Dm             G                 C B Bb A
   Quand j’te vois j’deviens niaiseux
Dm             G                 C B Bb A
   Quand j’te vois j’deviens niaiseux
Dm             G                 C
   Quand j’te vois j’deviens niaiseux


                                                                     375
Robert Charlebois - Les Ailes D'un Ange

Intro:

E         C#m     F#      Am
E         C#m     F#      Am
E         C#m     F#      Am
E         C#m     F#      Am
E         C#m     F#      Am


E                    C#m            F#             Am
    Si j'avais les ailes d'un ange, je partirais pour Québec
E                        C#m              F#             Am
    Si j'avais des lumières sur mon bike, je partirais pour Québec
E                  C#m          F#                        Am
    Si j'avais plus de gazoline, je montrais toutes les belles collines
E                  C#m           F#                     Am
    Quand la noirceur sera venue, j'allumerais les lumières pour ma vue
E                   C#m                F#                      Am
    So when the twilight falls on the heights I will light my lights for my sight
E           C#m           F#        Am
    Et je roule roul'rais dans la nuit
E      C#m      F#           Am
    En chantant cette jolie mélodie


E          C#m                 F#     Am
    J'ai passé des belles nuits à Québec,     dou bi dou bi dou
E              C#m      F#           Am
    En te caressant avec des beaux becs     dou bi dou bi dou
E          C#m                F#     Am
    J'ai passé nuits comme ça à Ottawa,     dou bi dou bi dou
E              C#m         F#                 Am
    En te caressant en te tenant dans mes bras dou bi dou bi dou
E          C#m                 F#       Am
    J'ai passé des nuits so-so à Toronto, ti-galop ti-galop ti-galop oh-oh
E                   C#m                    F#                   Am Em
    Pis si je me rappelle bien ça fermait un petit peu trop tôt




                                                                                    376
Em                                F#   F#6 F#
   Je suis un Hell's Angels à pieds
B                              Em
   Je roule à bille sur du papier
Em                                          F#   F#6 F#
   J'mange des hot-dogs mais j'bois du thé
B                                 Em
   Je suis un Satan's choice raté
Em                                    F#    F#6 F#
   Pour faire comme les vrais robineux
B                                      Em
   J'm'achète des beaux vieux habits neufs
Em                                        F#   F#6 F#
   Quand j'va s'à Main j'mange des guédilles
B                              Em
   Je suis un bum de bonne famille
Em                             F#    F#6 F#
   Et quand je fonce vers la lune
B                               Em
   C'est bien assis en Volkswagon avec ma brune
Em                          F#       F#6 F#
   J'aurais trop peur sur un chopper
B
   Avec Aline pourvu qu'ça pine, avec Thérèse fraise contre fraise, faut pas qu'ça niaise


E                     C#m            F#             Am
     Si j'avais les ailes d'un ange, je partirais pour Québec
E                         C#m              F#             Am
     Si j'avais des lumières sur mon Ford, je partirais pour Québec
E                   C#m          F#                         Am
     Si j'avais plus de gazoline, je montrais toutes les belles collines
E                   C#m           F#                     Am
     Quand la noirceur sera venue, j'allumerais les lumières pour ma vue
E                    C#m                F#                      Am
     So when the twilight falls on the heights I will light my lights for my sight
E            C#m           F#        Am
     Et je roule roul'rais dans la nuit
E       C#m      F#           Am
     En chantant cette jolie mélodie

E     C#m      F#     Am
1, 2, 3, 4,    5, 6, 7, Québec!
E     C#m      F#     Am
1, 2, 3, 4,    5, 6, 7, Québec!


Répéter et solo... (dans ma version ce ne sont pas les mêmes accords là...)




                                                                                            377
Robert Charlebois - The Frog Song

Rythme du couplet:
 1 - + - 2 - + - 3 - + - 4 - + -
-x-x---x---x---x---x---x---x-x---

Riff du refrain:
   D7                                        Gm
   1 - + - 2 - + - 3 - + - 4 - + - 5 - + -   1 - + - 2 - + - 3 - + - 4 - + -
e|-----2-------2--(2)----------2---3---5---|-6---6-------------6-5---3---1---|
B|-----1-------1--(1)----------------------|-3---3---------------------------|
G|-----2-------2--(2)----------------------|-3---3---------------------------|
D|-0---------------0-----------0---2---4---|-5---5-------------5-3---2---0---|
A|---------0-------------------------------|-5---5---------------------------|
E|-----------------------------------------|-3---3---------------------------|

   1 - + - 2 - + - 3 - + - 4 - + -   1 - + - 2 - + - 3 - + - 4 - + -
e|-----0-------0---0---------------|-5---5-----------5---------------|
B|-----1-------1---1---5---6---8---|-6---6-----------5---------------|
G|-----0-------0---0---------------|-5---5-----------6---------------|
D|-----2-------2---2---------------|-7---7-----------5---------------|
A|-3---------------3---3---5---7---|-8---8-----------7---------------|
E|---------3-----------------------|-----------1-3---5---------------|


Intro:
Dm       Bb     C       Dm


                Dm
Ton beurre est dur pis tes toasts sont brûlées
             Bb
Ton lait yé sûr ton jaune d'oeuf est crevé
                C                                   Dm
T'as pu d'eau chaude pour te faire un café instantanné


         D7
You're a frog I'm a frog kiss me
                     Gm
And I'll turn into a prince suddenly
C
  Donne-moé des peanuts
                         F                     A7
J'en vais t'chanter allouette sans fausse note


                 Dm
Sept heures et quart, t'embarque dans l'autobus
             Bb
Ton sightseeing tour pour aller travailler
           C                                    Dm
Un beau voyage en groupe organisé comme toué matins




                                                                                 378
         D7
You're a frog I'm a frog kiss me
                     Gm
And I'll turn into a prince suddenly
C
  Donne-moé des peanuts
                         F                     A7
J'en vais t'chanter allouette sans fausse note


             Dm
Ton boss yé dur l'hiver y va s'promener
            Bb
Sa côte d'Azur pendant qu'y t'fait chômer
               C                                              Dm
Pi l'reste du temps y t'fait trop travailler toé, tu t'plains pas


         D7
You're a frog I'm a frog kiss me
                     Gm
And I'll turn into a prince suddenly
C
  Donne-moé des peanuts
                         F                     A7
J'en vais t'chanter allouette sans fausse note


               Dm
Ta femme fait dur, toé on t'traite de nono
              Bb
ton p'tit dernier a la guédille au nez
                    C                                            Dm
T'es p't'être pas beau mais j'te trouve ben élevé pis tu chiâles pas


         D7
You're a frog I'm a frog kiss me
                     Gm
And I'll turn into a prince suddenly
C
  Donne-moé des peanuts
                         F                     A7
J'en vais t'chanter allouette sans fausse note


   1 + 2 + 3 + 4 +   1 + 2 + 3 +   1 + 2 + 3 + 4 +   1 + 2 + 3 +
e|-----------------|-------------|-----------------|--------------|
B|-6-----7-9-------|-7-6-7-9-6---|-7-----8-10------|-8-7-8-10-7---|
G|-----------------|-------------|-----------------|--------------|
D|-----------------|-------------|-----------------|--------------|
A|-----------------|-------------|-----------------|--------------|
E|-----------------|-------------|-----------------|--------------|




                                                                       379
Roch Voisine - Hélène

Capot 3e frette

Riff de l'intro:
    Em                G                 C                 D
    1 + 2 + 3 + 4 +   1 + 2 + 3 + 4 +   1 + 2 + 3 + 4 +   1   + 2 + 3 + 4 +
e|------0-------0---|-----3-------3---|-----0-------0---|-3/2-----2-------2--|
B|--------0---------|-------0---------|-------1---------|-------3-------3----|
G|o-----------0-----|-----------0-----|-----------0-----|-----2-------2-----o|
D|o---------------2-|-0-------------0-|-----------------|-0-----------------o|
A|------------------|-----------------|-3---------------|--------------------|
E|--0---------------|-----------------|-----------------|--------------------|

Version plus facile et régulière:
    Em                G                 C                 D
    1 + 2 + 3 + 4 +   1 + 2 + 3 + 4 +   1 + 2 + 3 + 4 +   1 + 2 + 3 + 4 +
e|--0---------0-----|-3---------3-----|-0---------0-----|-2---------2------|
B|------0-------0---|-----0-------0---|-----1-------1---|-----3-------3----|
G|o-------0-------0-|-------0-------0-|-------0-------0-|-------2-------2-o|
D|o-----------------|-----------------|-----------------|-0---------------o|
A|------------------|-----------------|-3---------------|------------------|
E|--0---------------|-3---------------|-----------------|------------------|


Intro:
Em         G       C    D
Em         G       C    D


Em              G               C         D
   Seul sur le sable les yeux dans l'eau, mon rêve était trop beau
Em              G               C   D
   L'été qui s'achève tu partiras à cent mille lieux de moi
Em              G             C   D
   Comment oublier ton sourire et tellement de souvenirs


(en commençant à strum-er plutôt que le picking
Em      G       C       D


Em                    G               C      D
   Nos jeux dans les vagues près du quai, je n'ai vu le temps passer
Em                  G         C       D
   L'amour sur la plage désertée, nos corps brûlés enlacés
Em              G               C       D
   Comment t'aimer si tu t'en vas dans ton pays loin là-bas

Em         G        C   D
     ba ba ba ba...

G                     C   G                  C
  Hélène things you do       make me crazy bout you
G                   C        G/B Am                           D
  Pourquoi tu pars reste ici         j'ai tant besoin d'une amie
G                     C   G                  C
  Hélène things you do       make me crazy bout you
G                       C           G/B Am                                              G
  Pourquoi tu pars si loin de moi          La ou le vent te porte loin de mon coeur qui bat

                                                                                              380
Solo de guitare:
1 + 2 + 3 +        4    +   1   +   2   +   3   +   4   +
G                           D
C
G                           D
C        G/B       Am                       C       X <- pas de 4e temps dans cette mesure
G                           D
C
G                           D
C        G/B       Am


G                     C   G                 C
  Hélène things you do       make me crazy bout you
G                   C        G/B Am                        D <- tiens
  Pourquoi tu pars reste ici        reste encore juste une nuit


Em                G              C          D
     Seul sur le sable les yeux dans l'eau, mon rêve était trop beau
Em                G              C    D
     L'été qui s'achève tu partiras à cent mille lieux de moi
Em                G              C       D
     Comment t'aimer si tu t'en vas dans ton pays loin là-bas
Em        G       C       D
                     dans ton pays loin là-bas
Em        G          C         D                Emadd9 <- final (arpège 4 première cordes)
       ba ba ba da ba     dans ton pays loin de moi




                                                                                             381
Rufus Wainwright - La Complainte De La Butte

Intro:
   F     Fmaj7 Dm    Adim/Eb C     Csus2 C
   1   + 2   + 3   + 4   +   1   + 2   + 3   + 4   +
e|-------------------------|-------------------------|
B|---1-1---1-1---1-1---1-1-|---1-1---1-1---1---------|
G|---2-2---2-2---2-2---2-2-|---0-0---0-0---0---------|
D|-3-----2-----0-----1-----|-2-----0-----------------|
A|-------------------------|-------------3-----------|
E|-------------------------|-------------------------|


Couplet:
   F     Fmaj7 Dm    Adim/Eb C     Csus2 C     Csus2
   1   + 2   + 3   + 4   +   1   + 2   + 3   + 4   +
e|-------------------------|-------------------------|
B|---1-1---1-1---1-1---1-1-|---1-1---1-1---1-1---1-1-|
G|---2-2---2-2---2-2---2-2-|---0-0---0-0---0-0---0-0-|
D|-3-----2-----0-----1-----|-2-----0-----------0-----|
A|-------------------------|-------------3-----------|
E|-------------------------|-------------------------|

   C     C7/Bb Am7   C/G     F     Fmaj7 Dm    F/C
   1   + 2   + 3   + 4   +   1   + 2   + 3   + 4   +
e|-------------------------|-------------------------|
B|---1-1---1-1---1-1---1-1-|---1-1---1-1---1-1---1-1-|
G|---0-0---0-0---0-0---0-0-|---2-2---2-2---2-2---2-2-|
D|-------------------------|-3-----2-----0-----------|
A|-3-----1-----0-----------|-------------------3-----|
E|------------------3------|-------------------------|

   F     Fmaj7 Dm    Adim/Eb C     Csus2 C     Csus2
   1   + 2   + 3   + 4   +   1   + 2   + 3   + 4   +
e|-------------------------|-------------------------|
B|---1-1---1-1---1-1---1-1-|---1-1---1-1---1-1---1-1-|
G|---2-2---2-2---2-2---2-2-|---0-0---0-0---0-0---0-0-|
D|-3-----2-----0-----1-----|-2-----0-----------0-----|
A|-------------------------|-------------3-----------|
E|-------------------------|-------------------------|

   C     C7/Bb Am7   C/G     F
   1   + 2   + 3   + 4   +   1   + 2   + 3   + 4   +
e|-------------------------|-------------1-----------|
B|---1-1---1-1---1-1---1-1-|---1-1-------1-----------|
G|---0-0---0-0---0-0---0-0-|---2-2-------2-----------|
D|-------------------------|-------------3-----------|
A|-3-----1-----0-----------|-------3---0-3-----------|
E|------------------3------|-1-----------1-----------|


Refrain:
   F        Bbm   Bbm/A Bm/G C7       C     C7/Bb Am7   C/G
   + 4 +    1   + 2   + 3   + 4   +   1   + 2   + 3   + 4   +
e|--------|-------------------------|-------------------------|
B|---1--1-|---2-2---2-2---2-2---1-1-|---1-1---1-1---1-1---1-1-|
G|---2--2-|---3-3---3-3---3-3---3-3-|---2-2---2-2---2-2---2-2-|
D|--------|-------------------------|-3-----2-----0-----------|
A|--------|-1-----0-----------3-----|-------------------3-----|
E|-1------|-------------3-----------|-------------------------|

                                                                  382
   Bb    Bb/A Gmb5 Gmb5/Db Csus4         C
   1   + 2   + 3   + 4   +   1   + 2   + 3   + 4   +
e|-------------------------|-------1---1-0-----------|
B|---3-3---3-3---2-2---2-2-|---------1---1-----------|
G|---3-3---3-3---3-3---3-3-|-----0-------0-----------|
D|-------------------------|---3---------2-----------|
A|-1-----0-----------4-----|-3-----------3-----------|
E|-------------3-----------|-------------------------|



Intro:

Couplet:
La lune trop   bleme pose un diademe sur tes cheveux roux
La lune trop   rousse de gloire éclabousse ton jupon plein d'trous
La lune trop   pale caresse l'opale de tes yeux blases
Princesse de   la rue soit la bienvenue dans mon coeur brise

Refrain:
The stairways up to la butte can make the wreched sigh
While windmill wings of the moulin shelter you and I

Couplet:
Ma p'tite mandigotte, je sens ta menotte qui cherche ma main
Je sens ta poitrine et ta taille fine, j'oublie mon chagrin
Je sens sur tes levres une odeur de fievre de gosse mal nourri
Et sous ta caresse je sens une ivresse qui m'aneantit

Refrain:
The stairways up to la butte can make the wreched sigh
While windmill wings of the moulin shelter you and I

Couplet (2e moitié):
Et voila qu'elle trotte la lune qui flotte, la princesse aussi
La da da da da, da da da da da, mes reves epanouis

Refrain:
Les escaliers de la butte sont durs aux misereux
Les ailes du moulin protegent les amoureux

F <- final (C à la place de Gmb5 et Csus4)




                                                                     383
Shakira - Whenever, Wherever

Intro:

e|------------------------------------------|
B|-------5-------------4--------2-----------|
G|---2-------------2--------------2---------|
D|-4---4---------4---4--------------4-------|
A|-------------------------------------2-3--|
E|------------------------------------------|

C#m         F#m   B    (2x)

C#m
Lucky you were born that far away so
G#m
We could both make fun of distance
A
Lucky that I love a foreign land for
E                 B
The lucky fact of your existance
C#m
Baby I would climb the andes soley
G#m
To count the freckles on your body
A
Never could imagine there were only
E                   B
Ten million ways to love somebody

F#m                C#m
Lo le lo le lo le, lo le lo le lo le,
A              B
Can't you see, I'm at your feet

C#m      A          E              B
Whenever, wherever, we're meant to be together,
C#m               A              E               B
I'll be there and you'll be near, and that's the deal my dear,
C#m      A            E            B
Hereover, thereunder, you'll never have to wonder,
C#m           A           E               B
We can always play by ear, but that's the deal my dear,


C#m         F#m   B    (2x)




                                                                 384
C#m
Lucky that my lips not only mumble
G#m
they spill kisses like a fountain
A
Lucky that my breasts are small and humble
E                        B
So you don't confuse them with mountains
C#m
Lucky I have strong legs like my mother
G#m
To run for cover when I need it
A
And these two eyes that for no other
E                      B
The day you leave will cry a river

F#m               C#m
Lo le lo le lo le, lo le lo le lo le,
A             B
At your feet, I'm at your feet

C#m      A          E              B
Whenever, wherever, we're meant to be together,
C#m               A              E               B
I'll be there and you'll be near, and that's the deal my dear,
C#m      A            E            B
Hereover, thereunder, you'll never have to wonder,
C#m           A           E               B
We can always play by ear, but that's the deal my dear,


C#m         F#m   B    (2x)


F#m                C#m
Lo le lo le lo le, lo le lo le lo le
A            E       B
Sink or fly, say it again
F#m                       C#m
Lo le lo le lo le lo le, tell me one more time
A                E            B
That you'll live lost in my eyes

C#m      A          E              B
Whenever, wherever, we're meant to be together,
C#m               A              E               B
I'll be there and you'll be near, and that's the deal my dear,
C#m      A            E              B
Hereover, thereunder, you've got me head over heels,
C#m             A           E                        B
There's nothing left to fear if you really feel the way I feel

C#m      A          E              B
Whenever, wherever, we're meant to be together,
C#m               A              E               B
I'll be there and you'll be near, and that's the deal my dear,
C#m      A            E             B
Hereover, thereunder, you've got me head over heels,
C#m             A           E                       B
There's nothing left to fear if you really feel the way I feel
                                                                 385
C#m   F#m   B   (2x)




                       386
Starmania - Le Blues du Businessman

    Em   A    D    G    C Bsus4 B      E   Am7   F Esus4 Dmaj7 F#7 Gmaj7
e|--0----0----2----3----0----2----2----0----0----1----0-----2----2----2---|
B|--0----2----3----3----1----5----4----0----1----1----0-----2----5----0---|
G|--0----2----2----0----0----4----4----1----0----2----2-----2----3----0---|
D|--2----2----0----0----2----4----4----2----2----3----2-----0----2----0---|
A|--2----0---------2----3----2----2----2----0----3----2----------4----x---|
E|--0--------------3-------------------0---------1----0----------2----3---|


Intro: Em

           A                            D
J'ai du succès dans mes affaires
           G                        C
J'ai du succès dans mes amours
                          Bsus4             B             Em
Je change souvent de secrétaire

           A                       D
J'ai mon bureau en haut d'une tour
             G                     C
D'où je vois la ville à l'envers
                        Bsus4        B                    Em
D'où je contrôle mon univers

              A                                 D
J'passe la moitié d'ma vie en l'air
          G                    C
Entre New York et Singapour
                         Bsus4                  E          Am7
Je voyage toujours en première

          D                    G
J'ai ma résidence secondaire
              C                         F
Dans tous les Hilton de la terre
                          E             Esus4                  E
J'peux pas supporter la misère

   Em        A     Em
Au moins es-tu heureux?
               Asus2                                D
J'suis pas heureux mais j'en ai l'air
           G                     C
J'ai perdu le sens de l'humour
                           Bsus4                    B          Em
Depuis qu'j'ai le sens des affaires

        A                     D
J'ai réussi et j'en suis fier
           G                                C
Au fond je n'ai qu'un seul regret
                                                        Bsus4       B
J'fais pas c'que j'aurais voulu faire




                                                                              387
          Em     A        Em
Qu'est-ce que tu veux mon vieux
               Asus2                  D
Dans la vie on fait ce qu'on peut
Pas ce qu'on veut...

                         D       Dmaj7        G
J'aurais voulu être un artiste
                           F#7
Pour pouvoir faire mon numéro
                              Em                  A
Quand l'avion se pose sur la piste
                   D    Dmaj7
À Rotterdam ou à Rio

A           G     F#m       Em  D     Dmaj7               Gmaj7
    J'aurais voulu être un chanteur
                            F#7
Pour pouvoir crier qui je suis
                       Em           A
J'aurais voulu être un auteur
                          D       Gmaj7
Pour pouvoir inventer ma vie
                          F#7
Pour pouvoir inventer ma vie

                         D            Dmaj7           Gmaj7
J'aurais voulu être un acteur
                                F#7
Pour tous les jours changer de peau
                           Em         A
Et pour pouvoir me trouver beau
                         D        Dmaj7            Gmaj7
Sur un grand écran en couleur
                         F#7
Sur un grand écran en couleur

                          D       Dmaj7           Gmaj7
J'aurais voulu être un artiste
                        F#7
Pour avoir le monde à refaire
                          Em       A
Pour pouvoir être un anarchiste
                        D       Dmaj7         Gmaj7
Et vivre comme un millionnaire
                        F#7
Et vivre comme un millionnaire

                         D          Dmaj7         Gmaj7
J'aurais voulu être un artiste
  F#7
U-um
                Em         A
Fadouli    fadoulo
                              D             Dmaj7          Gmaj7   D
Pour pouvoir dire pourquoi j'existe




                                                                       388
Stevie Ray Vaughan - Life By The Drop

Name of the chord followed by x means only play open chord on first beat


Accords:

    A                           E
    1 - + 2 - + 3 - + 4 - +     1 - + 2 - + 3 - + 4 - +
e|---------------------------|-(0)-----------------------|
B|---------------------------|-(0)-----------------------|
G|o(2)----------------------o|o(1)----------------------o|
D|o-2---2-4---4-2---2-4---4-o|o(2)----------------------o|
A|--0---0-0---0-0---0-0---0--|--2---2-4---4-2---2-4---4--|
E|---------------------------|--0---0-0---0-0---0-0---0--|

   F#m                          D
    1 - + 2 - + 3 - + 4 - +     1 - + 2 - + 3 - + 4 - +
e|--------2---2-------2---2--|---------------------------|
B|--------2---2-------2---2--|---------------------------|
G|o-------2---2-------2---2-o|o-2---2-4---4-2---2-4---4-o|
D|o-4---4-4-----4---4-4-----o|o-0---0-0---0-0---0-0---0-o|
A|--4---4-4-----4---4-4------|---------------------------|
E|--2---2-2-----2---2-2------|---------------------------|


Final F#m riff
   F#m
    1 - + 2 - + 3 - + 4 - +   1 - + 2 - + 3 - + 4   -   +
e|--------2---2-------2---2-|--------------------------------|
B|--------2---2-------2---2-|--------------------------------|
G|o-------2---2-------2---2-|-0-----------------------------o|
D|o-4---4-4-----4---4-4-----|-0---2-4---2-----2-2h4p2-------o|
A|--4---4-4-----4---4-4-----|---------------------------4----|
E|--2---2-2-----2---2-2-----|--------------------------------|




Intro:

   1   -   +   2   -   +   3   -   +   4   -   +
e|------------------------------------------------|
B|------------------------------------------------|
G|---------------------0----------------------h2--|
D|---------0---1-h-2-------0--h1p0-----0----------|
A|-0-h-3---------------------------3-------3------|
E|------------------------------------------------|

   1   -   +   2   -   +   3   -   +   4   -   +
e|------------------------------------------------|
B|------------------------------------------------|
G|-0-------------------------------------------2--|
D|-----2---1---0--h1p0-----0-------0-----------2--|
A|---------------------3-------3-------3---0------|
E|------------------------------------------------|




                                                                           389
   A
   1 - + 2 - + 3 - + 4 - +   1 - + 2 - + 3 - + 4 - +
e|-------------------------|-------------------------|
B|-------------------------|-------------------------|
G|-----------------------2-|-------------------------|
D|-2---2-4---4-2---2-2-----|-2---2-4---4-2---2-4---4-|
A|-0---0-0---0-0---0-3p0---|-0---0-0---0-0---0-0---0-|
E|-------------------------|-------------------------|


A               E
Hello there, my old friend,
F#m                        D
  Not so long ago it was 'till the end
A                             E
  We played outside in the pouring rain,
F#m                           D
    On our way up the road we started over again


F#m                          D        E
    You're livin' a dream, wo you on top
F#m                    D                  E
    My mind is achin', Lord it won't stop
F#mx               Dx              Ex
    That's how it happens, livin' life by the drop

A 2x


A                                E
    Up and down that road in our worn out shoes,
F#m                              D
    Talkin' 'bout good things and signin' the blues
A                        E
    You went your way, I stayed behind
F#m                           Dx
    We both knew it was just a matter of time


F#m                          D        E
    You're livin' a dream, wo you on top
F#m                    D                  E
    My mind is achin', Lord it won't stop
F#mx               Dx              Ex
    That's how it happens, livin' life by the drop


   A
   1 - + 2 - + 3 - + 4 - +   1 - + 2 - + 3 - + 4 - +
e|-------------------------|-------------------------|
B|-------------------------|-------------------------|
G|-------------------------|-----------2-------------|
D|-2---2-4---4-2---2-4---4-|-2---2-2-----2---2-4---4-|
A|-0---0-0---0-0---0-0---0-| 0---0-3p0---0---0-0---0-|
E|-------------------------|-------------------------|




                                                         390
A                             E
      No wasted time, we're alive today
F#m                                 D
   Churnin' up the past, there's no easier way
A                             E
   Time's been between us, a means to an end
F#mx                                  Dx
   God it's good to be here walkin' together my friend


Final F#m riff
You're livin' a dream...
Final F#m riff
My mind stopped achin'...

F#mx              Dx              Ex
   That's how it happens, livin' life by the drop

   A
   1 - + 2 - + 3 - + 4 - +   1 - + 2 - + 3 - + 4 - +
e|-------------------------|-------------------------|
B|-------------------------|-------------------------|
G|-------------------------|-----------2-------------|
D|-2---2-4---4-2---2-4---4-|-2---2-2-----2---2-4---4-|
A|-0---0-0---0-0---0-0---0-| 0---0-3p0---0---0-0---0-|
E|-------------------------|-------------------------|

F#mx              Dx              Ex
   That's how it happens, livin' life by the drop

   A
   1 - + 2 - + 3 - + 4 - +   1 - + 2 - + 3 - + 4 - +
e|-------------------------|-------------------------|
B|-------------------------|-------------------------|
G|-----------------------2-|-------------------------|
D|-2---2-4---4-2---2-2-----|-2---2-4---4-2---2-4---4-|
A|-0---0-0---0-0---0-3p0---|-0---0-0---0-0---0-0---0-|
E|-------------------------|-------------------------|


F#mx              Dx              Ex             A...
   That's how it happens, livin' life by the drop




                                                         391
Stone Temple Pilot - Creep

      C     B7   Em7    G   Asus2
e|----0-----2-----3-----3-----0----
B|----1-----0-----3-----0-----0----
G|----0-----2-----0-----0-----2----
D|----2-----1-----2-----0-----2----
A|----3-----2-----2-----2-----0----
E|----------------0-----3----------


Bridge riff:
    1 - + - 2 - + - 3 - + - 4 - + -   1 - + - 2 - + - 3 - + - 4 - + -
e|----------------------------------|----------------------------------|
B|----------------------------------|----------------------------------|
G|o---------------------------------|---------------------------------o|
D|o-----0-------0-------0-------0-2-|-----0-------0-------0-----------o|
A|----2-------0-------2-----0-2-----|---2-------0-------2-----0-1-2----|
E|--0-----0-2-----2-3-----3---------|-0-----0-2-----2-3-----3----------|



Intro:
C          B7      Em7
C          B7      Em7 <- hold


Em7                  C   B7               Em7
      Forward yesterday, makes me wanna stay
                            C  B7               Em7
      What they said was real, makes me wanna steal
                     C                 B7           Em7
      Livin' on the house, guess I'm livin, I'm a mouse
                       C            B7              Em7
      All's I got is time, got no meaning, just a rhyme


G                     Asus2                 Em7
Take time with the    wounded hand, 'cuz it likes to heal
G                     Asus2                 Em7
Take time with the    wounded hand, 'cuz I like to steal
G                     Asus2                 C                D
Take time with the    wounded hand, 'cuz it likes to heal, I like to steal


Bridge riff 4x:
     I'm half the    man   I   used   to   be (Yes I feel as the dawn   it fades to gray)
Well I'm half the    man   I   used   to   be (Yes I feel as the dawn   it fades to gray)
Well I'm half the    man   I   used   to   be (Yes I feel as the dawn   it fades to gray)
Well I'm half the    man   I   used   to   be, half the man I used to   be


Em7




                                                                                            392
Bass line
   1 - + - 2 - + - 3 - + - 4 - + -   1
e|---------------------------------|---
B|---------------------------------|---
G|---------------------------------|---
D|---------------------------------|---
A|-----------------7\6---5\4---3\2-|---
E|---------------------7-----5-----|-0--


Em7                 C     B7                  Em7
      Feelin' uninspired, think I'll start a fire
                 C    B7            Em7
      Everybody run, Bobby's got a gun
                          C              B7              Em7
      Think you're kinda neat, then she tells me I'm a creep
                             C                B7             Em7
      Friends don't mean a thing, guess I'll leave it up to me


G                     Asus2                         Em7
Take time with the    wounded hand, 'cuz it         likes to heal
G                     Asus2                         Em7
Take time with the    wounded hand, guess I         like to steal
G                     Asus2                         C                D
Take time with the    wounded hand, 'cuz it         likes to heal, I like to steal


Bridge riff 4x:
     I'm half the    man   I   used   to   be (Yes I feel as the dawn   it fades to gray)
Well I'm half the    man   I   used   to   be (Yes I feel as the dawn   it fades to gray)
Well I'm half the    man   I   used   to   be (Yes I feel as the dawn   it fades to gray)
Well I'm half the    man   I   used   to   be, half the man I used to   be


Em7 a couple of time


G                     Asus2                         Em7
Take time with the    wounded hand, 'cuz it         likes to heal
G                     Asus2                         Em7
Take time with the    wounded hand, guess I         like to steal
G                     Asus2                         C                D
Take time with the    wounded hand, 'cuz it         likes to heal, I like to steal


Bridge riff 4x:
     I'm half the    man   I   used   to   be (Yes I feel as the dawn   it fades to gray)
Well I'm half the    man   I   used   to   be (Yes I feel as the dawn   it fades to gray)
Well I'm half the    man   I   used   to   be (Yes I feel as the dawn   it fades to gray)
Well I'm half the    man   I   used   to   be, half the man I used to   be

Half the man I used to be...




                                                                                            393
Sublime - Santeria

      E     Ab   Dbm    B     E7
e|----7-----4-----4-----7-----x----
B|----9-----4-----5-----7-----9----
G|----9-----5-----6-----8-----7----
D|----9-----6-----6-----9-----9----
A|----7-----6-----4-----9-----7----
E|----------4-----------7----------


Refrain:
    A       B         E E/D# Dbm Dbm/B
    1 + 2 + 3 + 4 +   1 + 2 + 3 + 4 +
e|----5---5---7---7-|---4---4---4---4--|
B|----5---5---7---7-|---5---5---5---5--|
G|o---6---6---8---8-|---4---4---6---6-o|
D|o-----------------|-----------------o|
A|------------------|-7---6---4--------|
E|--5---5---7---7---|-------------7----|


Intro (something like):
   E                                 Ab
   1 - + - 2 - + - 3 - + - 4 - + -   1 - + - 2 - + - 3 - + - 4 - + -
e|---------------------------------|---------------------------------|
B|---------------------------------|-------4-------------------------|
G|-------9---------------9---------|-----------5-----------5---------|
D|-----9-----9-------------9-9-----|---------------------------------|
A|-7-----------7---7-----------7---|-----------------6-----------4---|
E|---------------------------------|-4---------------4---------------|

   Dbm                               B
   1 - + - 2 - + - 3 - + - 4 - + -   1 - + - 2 - + - 3 - + - 4 - + -
e|---------------------------------|---------------------------------|
B|---------------5-----------------|-------7-------------------------|
G|-------6---4h6-------6-----------|-----------8---------------------|
D|-----6---------------------------|-----9-------9-------------------|
A|-4-------------------------6h7---|---------------------------------|
E|---------------------------------|-7-------------------------------|


        E                          Ab
I don't practice santeria, I ain't got no crystal ball
        Dbm                         B
Well, I had a million dollars but I, I'd spend it all
   E                                Ab
If I could find that Heina and that Sancho that she's found
          Dbm                         B
well I'd pop a cap in Sancho and I'd slap her down


A        B              E   Dbm
  What I really wanna know, my baby
A        B                E   Dbm
  What I really want to say I can't define
A           B           E   Dbm
  Well it's love that I need, oh
A    B
  My soul will have to

                                                                         394
E                            Ab
Wait till I get back find a Heina of my own
Dbm                        B
Daddy's gonna love one and all
  E                                 Ab
I feel the break, feel the break, feel the break and I got live it out
Dbm         B
    oh, yea huh, well I swear that I


A        B              E   Dbm
  What I really wanna know, my baby
A        B                E   Dbm
  What I really want to say I can't define
A      B            E   Dbm
  Got love, make it go
A    B
  My soul will have to


E       Ab        Dbm       B
E       Ab        Dbm       B


A        B                E Dbm
  What I really   wanna say, my baby
A        B                 E     Dbm
  What I really   want to say is I've got mine
A            B             E          Dbm
  And I'll make   it, yes, I'm comin' up.
A          B
  Tell sanchito   that if


E                                  Ab
He knows what is good for him he   best go run and hide
Dbm                 B
Daddy's got a new .45
    E                                          Ab
and I won't think twice to stick   that barrel straight down Sancho's throat
  Dbm                        B
Believe me when I say that I got   somethin for his punk ass


A          B             E Dbm
   What I really wanna say, my baby
A          B               E      Dbm
   What I really want to say is there's just one
A       B             E Dbm
   Way back, and I'll make it
A     B                 E5    Eb5     Db5 B5
   My soul will have to wait
A5      B5   E7
yeah, yeah, yeah...




                                                                               395
Third Eye Blind - How's It Going To BE

Intro (and main rhythm):
    F                                 C       Bb
    1 - + - 2 - + - 3 - + - 4 - + -   1 - + - 2 - + - 3 - + - 4 - + -
e|--1-------1-----1-1-1-1---1---0---|-0---1---1-----1-1-1-1---1---1----|
B|--1-------1-----1-1-1-1---1---1---|-1---3---3-----3-3-3-3---3---3----|
G|o-2-------2-----2-2-2-2---2---0---|-0---3---3-----3-3-3-3---3---3---o|
D|o-3-------3-----3-3-3-3---3---2---|-2---3---3-----3-3-3-3---3---3---o|
A|--3-------3-----3-3-3-3---3---3---|-3---1---1-----1-1-1-1---1---1----|
E|--1-------1-----1-1-1-1---1-------|----------------------------------|


Intro: 5x
F                           C         Bb


    F                                C      Bb
I'm only pretty sure that I can't take anymore
           F                C     Bb
Before you take a swing I wonder, what are we fighting for
F                                      C       Bb
  When I say out loud I want to get out of this
    F                           C        Bb
I wonder, is there anything I'm gonna miss


         Gm                                F      C
I wonder how's it gonna be when you don't know me
Gm                                  Am     Bb
How's it gonna be When you're sure I'm not there
Gm                              F      C
How's it gonna be When there's no one there to talk to you
   Gm                Am     Bb         Bb
Between you and me cause I don't care how's it gonna be


F                           C         Bb
                                           How's it gonna be
F                           C         Bb


F                                            C    Bb
  Where we used to laugh there's a shouting match
                     F                                             C    Bb
Sharp as a thumbnail scratch, a silence I can't ignore like the hammock by the doorway
          F                               C          Bb
we spent time in swings empty I don't see lightning like last fall
             F               C     Bb
When it was always about to hit me


         Gm                         F        C
I wonder how's it gonna be when it goes down
Gm                             Am     Bb
How's it gonna be when you're not around
Gm                           F    C
How's it gonna be when you found out there was nothing
   Gm                Am     Bb        Bb
Between you and me cause I don't care how's it gonna be

                                                                                         396
F                           C         Bb


Gm               Bb
How's it gonna be
               F           C
When you don't know me anymore
    Gm              Bb
And how's it gonna be


F                              C   Bb
  Want to get myself back in again
    F                  C   Bb
The soft dive of oblivion
F                                    C       Bb
  I want to taste the salt of your skin
    F                  C   Bb
The soft dive of oblivion      oblivion


Gm               Bb
How's it gonna be
               F           C
When you don't know me anymore
    Gm              Bb
And how's it gonna be    how's it gonna be


F                           C         Bb
                                           How's it gonna be
F                           C         Bb

F                           C         Bb

F                           C         Bb

F




                                                               397
Tom Petty - Last Dance With Mary Jane

      Am      G     D      Am7    Em    A
e|----0-------3-----0h2-----3-----0-----0----
B|----0h1-----0-----3-------1-----0-----2----
G|----0h2-----0-----2-------2-----0-----2----
D|----0h2-----0-----0-------2-----2-----2----
A|----0-------2-------------0-----2-----0----
E|------------3-------------------0----------


Am      G       D       Am
Am7     G       D       Am
Am      G       D       Am
Am7     G       D       Am


Am                G
She grew up in an Indiana town
      D                      Am
Had a good lookin' momma who never was around
        Am7                  G
But she grew up tall and she grew up right
          D                     Am
With them Indiana boys on them Indiana night


Am      G       D       Am
Am7     G       D       Am


         Am                     G
Well she moved down here at the age of 18
    D                           Am
She blew the boys away, it was more than they'd seen
Am7                     G
I was introduced and we both started groovin'
    D                           Am
She said, "I dig you baby but I got to keep movin'"


Am       G      D                  Am
  ...on,          keep movin' on
Am7      G      D       Am


Em                                                    A
Last dance with Mary Jane, one more time to kill the pain
Em                                                      A    G
I feel summer creepin' in and I'm tired of this town again


Am      G       D       Am
Am7     G       D       Am




                                                                 398
      Am              G
Well I don't know but I've been told
    D                    Am
You never slow down, you never grow old
    Am7                         G
I'm tired of screwing up, I'm tired of goin' down
    D                    Am
I'm tired of myself, I'm tired of this town
Am        G
Oh my my, oh hell yes
D                 Am
Honey put on that party dress
Am7             G
Buy me a drink, sing me a song,
D                           Am
Take me as I come 'cause I can't stay long


Em                                                    A
Last dance with Mary Jane, one more time to kill the pain
Em                                                      A    G
I feel summer creepin' in and I'm tired of this town again


Am      G       D        Am
Am7     G       D        Am
Am      G       D        Am
Am7     G       D        Am


          Am              G
There's pidgeons down on Market Square
      D                Am
She's standin' in her underwear
Am7                  G
Lookin' down from a hotel room
D                 Am
Nightfall will be comin' soon
Am           G
Oh my my, oh hell yes
        D                   Am
You've got to put on that party dress
        Am                     G
It was too cold to cry when I woke up alone
   D                      Am
I hit the last number, I walked to the road


Em                                                     A
Last dance with Mary Jane, one more time to kill the pain
Em                                                      A    G
I feel summer creepin' in and I'm tired of this town again


Am      G       D        Am
Am7     G       D        Am

Repeat and fade out...




                                                                 399
U2 - One

      Am Dsus2 Fmaj7    G     C   C/B
e|----0-----0-----0-----3-----0-----0----
B|----1-----3-----1-----0-----1-----1----
G|----2-----2-----2-----0-----0-----0----
D|----2-----0-----3-----0-----2-----x----
A|----0-----------------2-----3-----2----
E|----------------------3----------------

Entre les C et les Am, on peut utiliser le passing chord C/B sur le 4e temps
Entre les Am et les Fmaj7, on peut utiliser le passing chord G sur le 4e temps


Intro et riff du couplet:

        Am                                Dsus2
  + -   1 - + - 2 - + - 3 - + - 4 - + -   1 - + - 2 - + - 3 - + - 4 - + -
e-----|----------------------------------|---------------------------------|
B-----|----------------------------------|---------------------------------|
G-----|o-5------/9----p7-9p7-9-------7\5-|---------7----p5-7p5-7-------5/7-|
D-5h7-|o---------------------------------|---------7----p5-7p5-7-------5/7-|
A-----|--0-------------------------------|-5-------------------------------|
E-----|----------------------------------|---------------------------------|

   Fmaj7                             G
   1 - + - 2 - + - 3 - + - 4 - + -   1 - + - 2 - + - 3 - + - 4 - + -
e|---------------------------------|------------------------------------|
B|---------------------------------|------------------------------------|
G|---------9----p7-9p7-9-----------|-----------------------------------o|
D|-7-------7-------7---7-------7/9-|-9-------10---p9-10p9-12-----------o|
A|-8---------------------------8/10|-10------10------10---10------10h12-|
E|---------------------------------|------------------------------------|


Am                  Dsus2
   Is it getting better
Fmaj7                   G
   Or do you feel the same
Am                   Dsus2
   Will it make it easier on you
Fmaj7                     G
   Now you got someone to blame




                                                                                 400
        C
You say one love
Am
   One life
Fmaj7
   When it's one need
C
   In the night
C
   It's one love
Am
   We get to share it
Fmaj7
   It leaves you baby
      C
If you don't care for it


Am      Dsus2      Fmaj7   G


Am                 Dsus2
   Did I disappoint you
Fmaj7                           G
   Or leave a bad taste in your mouth
Am                        Dsus2
   You act like you never had love
Fmaj7                      G
   And you want me to go without


           C
Well it's too late
Am
     Tonight
Fmaj7
     To drag the past out
   C
Into the light
C
     We're one
           Am
But we're not the same
           Fmaj7
We get to carry each other
   C
Carry each other

One


Am      Dsus2      Fmaj7   G

Am                            Dsus2
   Have you come    here for forgiveness
Fmaj7                         G
   Have you come    to raise the dead
Am                                Dsus2
   Have you come    here to play Jesus
Fmaj7                       G
   To the lepers    in your head
                                           401
C
     Did I ask too much
Am
   More than a lot
Fmaj7
   You gave me nothing
        C
Now it's all I got
C
   We're one
          Am
But we're not the same
  Fmaj7
We hurt each other
        C
Then we do it again


You say
C
   Love is a temple
    Am
Love a higher law
C
   Love is a temple
    Am
Love the higher law
C
  You ask me to enter
    G
But then you make me crawl

And I can't be holding on
Fmaj7
   To what you got

When all you got is hurt


C
     One love
Am
   One blood
Fmaj7
   One life
            C
You got to do what you should
C
   One life
Am
   With each other
Fmaj7
   Sisters
C
   Brothers




                                402
C
    One life
          Am
But we're not the same
          Fmaj7
We get to carry each other
  C
Carry each other

C           Am
   One...
 Fmaj7       C
One...

C      Am        Fmaj7   C   <= 4x




                                     403
Vilain Pingouin - Délinquance

      Am    C    C/B    F     D     E     G     Dm
e|----0-----0-----0-----1-----2-----0-----3-----1----
B|----1-----1-----1-----1-----3-----0-----0-----3----
G|----2-----0-----0-----2-----2-----1-----0-----2----
D|----2-----2-----x-----3-----0-----2-----0-----0----
A|----0-----3-----2-----3-----------2-----2----------
E|----------------------1-----------0-----3----------




Intro 4x:
    Am              C                 C/B             F       C/B
    1 - + - 2 - + - 3 - + - 4 - + -   1 - + - 2 - + - 3 - + - 4 - + -
e|----------------------------------|----------------------------------|
B|----------------------------------|----------------------------------|
G|o---------2p0-----------0---------|-------0-------------------0-----o|
D|o-----2-------2p0-----2-----2-----|-----0-----0-----------3---------o|
A|--0---------------3-----------3---|-2-----------2-------3-------2----|
E|----------------------------------|-----------------1----------------|


(accord avec palm mute)

Am            C             C/B            F       C/B
   Sa mère ne l'aimait plus parce que son père, il l'aimait trop
Am                        C            C/B   F         C/B
   Ce fait qu'elle est tombée dans rue d'une bonne poussée dans le dos
Am                 C               C/B               F        C/B
   Elle a perdu le fil de ses idées au bout de l'aiguille qui fait rêver
Am            C                 D                       E              Am      G
   On n'a pas tous une tendre enfance, elle c'était plutôt de la délinquance


           Dm                E              Am       G
Elle n'a jamais trouvé de raisons pour expliquer
              C                      E               Am     G
Pourquoi que dans une foule elle est toujours isolée
           Dm                E              Am       G
Elle n'a jamais trouvé de raisons pour expliquer
                 C               D
Pourquoi que des fois la vie est déjà toute tracée


Riff de l'intro 2x:
Am      C         C/B     F   C/B
Am      C         C/B     F   C/B


Am          C            C/B                   F          C/B
   Sans un bon encadrement, elle peut pas être sage comme une image
Am                C                  C/B          F         C/B
   Pour elle, changer de foyer d'accueil, c'était juste changer sa cage
Am                        C              C/B                    F        C/B
   Tout ce qu'elle voulait c'était sa chance, un petit coup de main pour faire sa place
Am                  C                  C/B             F        C/B
   Mais le coup de main y'en a plusieurs qui voulaient juste y mettre dans la face


                                                                                          404
Am                   C              C/B                F        C/B
   Ce fait qu'elle a grandi dans rue, dans le fond des ruelles sans issue
Am           C           C/B            F    C/B
   La société des allumés qui vivent de la misère qui tue
Am               C                        C/B                 F         C/B
   Dans la vie tout se vend, tout s'achète, et y'a bien plus d'acheteurs qu'on pense
Am             C                    D   E           Am      G
   Y'en a plusieurs qui fixaient le prix de sa délinquance


           Dm                E              Am       G
Elle n'a jamais trouvé de raisons pour expliquer
              C                      E               Am     G
Pourquoi que dans une foule elle est toujours isolée
           Dm                E              Am       G
Elle n'a jamais trouvé de raisons pour expliquer
                 C               D
Pourquoi que des fois la vie est déjà toute tracée


Pont:
   Am      G         Dm      E         Am      G         C       E
   1 + 2 + 3 + 4 +   1 + 2 + 3 + 4 +   1 + 2 + 3 + 4 +   1 + 2 + 3 + 4 +
e|-----------------|-----------------|-----------------|-----------------|
B|-----------------|-----------------|-----------------|-----------------|
G|-----------------|-----------------|-----------------|-----------------|
D|---------------3-|---2-0-----------|-----------------|-----------------|
A|-0---2-3-2-0-----|-------3-2-3-2---|-0---2-3-2-0---3-|---5-3-2---3-2---|
E|-------------3---|---------------3-|-------------3---|---------------3-|

   Am      G         Dm      E         Am      G         C       D
   1 + 2 + 3 + 4 +   1 + 2 + 3 + 4 +   1 + 2 + 3 + 4 +   1 + 2 + 3 + 4 +
e|-----------------|-----------------|-----------------|-----------------|
B|-----------------|-----------------|-----------------|-----------------|
G|-----------------|-----------------|-----------------|-----------------|
D|---------------3-|---2-0-----------|-----------------|-----------------|
A|-0---2-3-2-0-----|-------3-2-3-2---|-0---2-3-2-0---3-|---5-3-2---3-2-0-|
E|-------------3---|---------------3-|-------------3---|-----------------|


Am      C         C/B     F   C/B
Am      C         C/B     F   C/B
Am      C         C/B     F   C/B
Am      C         C/B     F   C/B




                                                                                       405
Am                     C                           C/B           F     C/B
   C'est le genre d'histoire que le monde aime bien avec une belle fin prévisible
Am                 C                   C/B         F         C/B
   À voir quelque chose tous les matins ça finit par être invisible
Am                       C                 C/B                 F     C/B
   Mais je pense que je vais vous décevoir, c'est pas ma faute c'est son histoire
Am             C              C/B                  F       C/B
   Moi je fais juste la raconter, c'est elle qui décide où aller
Am               C           C/B             F         C/B
   Sa mère ne la connaît plus parce que son père, il l'aimait trop
Am                   C             C/B F         C/B
   Pis c'est comme ça qu'elle a su comment qu'on sauve sa peau
Am               C               C/B             F      C/B
   Elle a repris au fil des années tout ce qu'on lui avait enlevé
Am           C                           D           E                   Am       G
   Elle a compris qu'on fait sa chance, on n'attend pas que les autres y pensent


           Dm                E                 Am       G
Elle a trouvé toutes les façons pour se cacher
                C                     E                Am       G
Maintenant dans une foule elle est toujours dissimulée
                    Dm              E               Am      G
Mais elle n'a jamais cherché de façons pour oublier
                C                 D
Elle regarde le monde autour, des fois, pour se rappeler


Pont 2x

Am -> final




                                                                                      406
Vilain Pingouin - Le train

      Am    G     F     D     C    C/B
e|----0-----3-----1-----2-----0-----0----
B|----1-----3-----1-----3-----1-----1----
G|----2-----0-----2-----2-----0-----0----
D|----2-----0-----3-----0-----2-----x----
A|----0-----2-----3-----------3-----2----
E|----------3-----1----------------------



Intro:
    Am      G       F       G           Am      G       F       G
    1 - + - 2 - + - 3 - + - 4 - + -     1 - + - 2 - + - 3 - + - 4 - + -
e|-----------------------------------|--0-0------------------------------|
B|------1-------3-------1-------3----|--1-1-1-------3-------1-------3----|
G|o---2---2---0---0---2---2---0---0-o|o-2-2---2---0---0---2---2---0---0-o|
D|o-2-------0-------3-------0-------o|o-2-2-----0-------3-------0-------o|
A|-----------------------------------|--0-0------------------------------|
E|-----------------------------------|-----------------------------------|

Am         G       F       G
Am         G       F       G
Am         G       F       G
Am         G       F       G
Am                 Am


Am              G          D                  C       C/B
   Je me lève à chaque matin mais je suis pas sûr que c'est moi
Am       G        D      C   C/B

Am                 G         D               C              C/B Am
     J'aime autant pas y penser, ça fait longtemps que j'ai compris;
           G       D       C   C/B

       Am              G        D           C    C/B
Qu'on passe à travers sa vie à coups de journées
   Am                    G                D            C  C/B
La seule chose qu'on veut garder c'est le droit de rêver
   Am              G              D       C   C/B
La gourmandise des uns fait la famine des autres
    Am               G                D              C   C/B
Pis on se met à chialer quand cette famine c'est la nôtre


Riff de l'intro 2x:
Am      G       F          G
Am      G       F          G


Am           G        D         C   C/B
Quand on regarde vers son passé
Am           G                    D   C     C/B
On se rend compte qu'y a rien à oublier
      Am     G    D       C   C/B
Mais on a peur de s'avancer
   Am      G      D     C   C/B
Et on se laisse enraciner

                                                                             407
            Am              G         D           C    C/B
Parce qu'on passe à travers sa vie à coups de journées
   Am                    G                  D        C     C/B
La seule chose qu'on veut garder c'est le droit de rêver
   Am          G              D           C   C/B
La liberté des uns devient la prison des autres
    Am              G                   F           G
Pis on se met à chialer quand cette prison c'est la nôtre


Am        G              F       G
  Un jour je vais sauter sur un train
   Am     G        F         G
Et disparaître au bout du chemin
             Am          G         F      G
Ou peut-être même embarquer sur un radeau
            Am                        G                    F          G
Et ceux qui pensent que je vais me noyer oublient que j'ai appris à nager


Riff de l'intro 2x:
Am      G       F        G
Am      G       F        G


Am        G         D           C   C/B
Quand la femme se lève le matin
    Am          G           D     C     C/B
Pis qu'a reconnaît plus son mari
       Am         G           D             C   C/B
Elle reconnaît plus l'homme qui est en lui
Am           G            D          C    C/B
Celui qu'y a longtemps l'avait séduite


             Am             G         D           C     C/B
Parce qu'il passe à travers sa vie à coups de journées
   Am                    G                D           C     C/B
La seule chose qu'il veut garder c'est le droit de rêver
   Am                 G               D           C     C/B
La rage de vivre des uns fait souvent faiblesse à d'autres
    Am              G                   F           G
Pis on se met à chialer quand cette faiblesse c'est la nôtre


Am        G              F       G
  Un jour je vais sauter sur un train
   Am     G        F         G
Et disparaître au bout du chemin
             Am          G         F      G
Ou peut-être même embarquer sur un radeau
            Am                        G                    F          G     Am
Et ceux qui pensent que je vais me noyer oublient que j'ai appris à nager




                                                                                 408
             Am      G       D       C   C/B   Am      G       D       C   C/B
   4 - + -   1 - + - 2 - + - 3 - + - 4 - + -   1 - + - 2 - + - 3 - + - 4 - + -
e|---------|---------------------------------|-----------3---------------------|
B|---------|-----------------------3---------|-------5-----5-3-5-3-------------|
G|-----2-4-|-5-4-2-------2-4-5-4-2-------2-4-|-5-4-2---------------5-4-2---2-4-|
D|---2-----|-------2---2---------------2-----|---------------------------2-----|
A|---------|---------------------------------|---------------------------------|
E|---------|---------------------------------|---------------------------------|

   Am      G       D       C   C/B   Am      G       D       C   C/B   Am
   1 - + - 2 - + - 3 - + - 4 - + -   1 - + - 2 - + - 3 - + - 4 - + -   1
e|---------------------------------|-----------3---------------------|---
B|-----------------------3---------|-------5-----5-3-5-3-------------|---
G|-5-4-2-------2-4-5-4-2-------2-4-|-5-4-2---------------5-4-2-0-----|---
D|-------2---2---------------2-----|-----------------------------2-0-|---
A|---------------------------------|---------------------------------|-0-
E|---------------------------------|---------------------------------|---


Solo d'harmonica
Am      G        D      C   C/B
Am      G        D      C   C/B
Am      G        D      C   C/B
Am      G        D      C   C/B


Am        G              F       G
  Un jour je vais sauter sur un train
   Am     G        F         G
Et disparaître au bout du chemin
             Am          G         F      G
Ou peut-être même embarquer sur un radeau
            Am                        G                    F          G     Am
Et ceux qui pensent que je vais me noyer oublient que j'ai appris à nager


Riff de l'intro   4x:
Am      G         F     G
Am      G         F     G
Am      G         F     G
Am      G         F     G


Am         G               F     G
   Un jour je vais sauter sur un train
Am       G       F       G

   Am     G        F         G
Et disparaître au bout du chemin
Am      G       F       G


Fade out...




                                                                                   409
Vincent Vallières - Plate

Shuffle beat


   F#m               E                 F#m                 E
   1 + 2 + 3 + 4 +   1 + 2 + 3 + 4 +   1 + 2 + 3   + 4 +   1 + 2 + 3 + 4 +
e|-----------------|-----------------|-------------------|-----------------|
B|-----------------|-----------------|-------------------|-----------------|
G|-----------------|-----------------|-------------------|-----------------|
D|-----------4---2-|-----------2-----|-------------------|-----------------|
A|-------2-4-------|-------2-4---4-2-|------b4r2p0---2---|-----------------|
E|-2---------------|-----------------|-2-----------2-----|-----------------|

   F#m               E                 Bm                E
   1 + 2 + 3 + 4 +   1 + 2 + 3 + 4 +   1 + 2 + 3 + 4 +   1 + 2 + 3 + 4 +
e|-----------------|-----------------|-2---x-2---2-2---|-0---x-0---0-0---|
B|-----------------|-----------------|-3---x-3---3-2---|-0---x-0---0-0---|
G|-----------------|-----------------|-4---x-4---4-4---|-1---x-1---1-1---|
D|-----------4---2-|-----------2-----|-4---x-4---4-4---|-2---x-2---2-2---|
A|-------2-4-------|-------2-4---4-2-|-2---x-2---2-2---|-2---x-2---2-2---|
E|-2---------------|-----------------|-----------------|-0---x-0---0-0---|


     F#m             E
T'es plate comme la presse du dimanche
     F#m             E
T'es plate comme sortir tes vidanges
F#m                E
Plate comme manger du paté chinois
     Bm                E
T'es plate comme quand on suit la loi

     F#m               E
T'es plate comme un complet veston cravate
     F#m                 E
T'es plate, aussi plate qu'un aristocrate
F#m                        E
Plate comme tout le monde qui chatte
     Bm             E                          F#m
T'es plate comme rouler quand la lumière est vaaaaaarte


F#m     E
F#m     E




                                                                               410
     F#m                    E
T'es triste comme quelqu'un qui rentre dans police
     F#m               E
T'es triste comme de payer pour une pipe
F#m              E
Triste comme espérer ta piasse de tip
     Bm              E                      F#m
T'es triste comme un vieux crisse qui dit : "crisse"
                         E
T'es triste comme des enfants qui marchent en rang
     F#m                    E
T'es triste comme quelqu'un qui a perdu son gant
F#m                E
Triste comme un dimanche après-midi
     Bm              E           F#m
T'es triste comme jouer du bouzouki


F#m     E
F#m


Bm                       E
   Y'a pu rien d'assez beau pour toé-hey-hey
F#m                   E
   Par où tu t'en va-ah-ah
Bm                  E
   Quessé qu'on va faire de toé-hey-hey
F#m               E
    Par où tu vas     ah-oh!


   F#m               E                 F#m                 E
   1 + 2 + 3 + 4 +   1 + 2 + 3 + 4 +   1 + 2 + 3   + 4 +   1 + 2 + 3 + 4 +
e|-----------------|-----------------|-------------------|-----------------|
B|-----------------|-----------------|-------------------|-----------------|
G|-----------------|-----------------|-------------------|-----------------|
D|-----------4---2-|-----------2-----|-------------------|-----------------|
A|-------2-4-------|-------2-4---4-2-|------b4r2p0---2---|-----------------|
E|-2---------------|-----------------|-2-----------2-----|-----------------|

   F#m               E                 Bm                E
   1 + 2 + 3 + 4 +   1 + 2 + 3 + 4 +   1 + 2 + 3 + 4 +   1 + 2 + 3 + 4 +
e|-----------------|-----------------|-2---x-2---2-2---|-0---x-0---0-0---|
B|-----------------|-----------------|-3---x-3---3-2---|-0---x-0---0-0---|
G|-----------------|-----------------|-4---x-4---4-4---|-1---x-1---1-1---|
D|-----------4---2-|-----------2-----|-4---x-4---4-4---|-2---x-2---2-2---|
A|-------2-4-------|-------2-4---4-2-|-2---x-2---2-2---|-2---x-2---2-2---|
E|-2---------------|-----------------|-----------------|-0---x-0---0-0---|




                                                                               411
     F#m                 E
T'es plate comme être assis su'a galerie
     F#m             E
T'es plate comme un adolescent qui pourrit
F#m                    E
Plate comme faire des choix réfléchis
     Bm                      E
T'es plate comme quelqu'un qui a compris
     F#m                     E
T'es plate comme quand qu'y a pu d'anarchie
     F#m                   E
T'es plate comme le lac Massawippi
F#m                            E
Plate aussi plate que mettre la nappe
     Bm       E     F#m                E            F#m
T'es plate t'attends ton chien qui jappe-ap-ap-ap-ap-ap-ap-ap-ap-ap-ap-ap


Bm                       E
   Y'a pu rien d'assez beau pour toé-hey-hey
F#m                   E
   Par où tu t'en va-ah-ah
Bm                  E
   Quessé qu'on va faire de toé-hey-hey
F#m               E
    Par où tu vas     ah-oh!


Solo: Chaque note est gardée en trille jusqu'à la prochaine

   Bm        E         F#m       E         Bm        E         F#m       E
   1 2 3 4   1 2 3 4   1 2 3 4   1 2 3 4   1 2 3 4   1 2 3 4   1 2 3 4   1 2 3 4
e|---2-----|---------|---------|---------|---------|---------|---------|---------|
B|---------|---------|---------|---------|---------|---------|---5-----|---------|
G|---------|---------|---------|---------|---------|---------|---------|---------|
D|---------|---------|---------|---------|---------|---------|---------|---------|
A|---------|---------|---------|---------|---------|---------|---------|---------|
E|---------|---------|---------|---------|---------|---------|---------|---------|

   Bm        E         F#m       E         Bm        E         F#m       E
   1 2 3 4   1 2 3 4   1 2 3 4   1 2 3 4   1 2 3 4   1 2 3 4   1 2 3 4   1 2 3 4
e|---------|---------|---------|---------|---------|---------|---------|-------2-|
B|---------|---------|---2-----|---------|---------|---------|---------|-2-5-----|
G|---------|---------|---------|-4-----2-|---------|---------|-------4-|---------|
D|---------|---------|---------|---------|---------|---------|---------|---------|
A|---------|---------|---------|---------|---------|---------|---------|---------|
E|---------|---------|---------|---------|---------|---------|---------|---------|

   F#m       E         F#m       E         F#m       E         Bm        E
   1 2 3 4   1 2 3 4   1 2 3 4   1 2 3 4   1 2 3 4   1 2 3 4   1 2 3 4   1 2 3 4
e|---------|---------|---------|---------|---------|---------|---------|---------|
B|-5-------|--9b10---|---------|--9b10---|---------|--9b10---|---------|---------|
G|---------|--9b11---|---------|--9b11---|---------|--9b11---|---------|---------|
D|---------|---------|---------|---------|---------|---------|---------|---------|
A|---------|---------|---------|---------|---------|---------|---------|---------|
E|---------|---------|---------|---------|---------|---------|---------|---------|




                                                                                     412
     F#m           E
T'es triste comme avoir une otite
     F#m               E
T'es triste comme un film 3X
F#m                  E
Triste comme une section nécrologique
     Bm                E
T'es triste pis t'es même pas en crisse


F#m     E
F#m


   F#m               E                 F#m               E
   1 + 2 + 3 + 4 +   1 + 2 + 3 + 4 +   1 + 2 + 3 + 4 +   1 + 2 + 3 + 4 +
e|-----------------|-----------------|-----------------|-----------------|
B|-----------------|-----------------|-----------------|-----------------|
G|-----------------|-----------------|-----------------|-----------------|
D|-----------4---2-|-----------2-----|-----------4---2-|-----------2-----|
A|-------2-4-------|-------2-4---4-2-|-------2-4-------|-------2-4---4-2-|
E|-2---------------|-----------------|-2---------------|-----------------|

   F#m               E                 Bm                E
   1 + 2 + 3 + 4 +   1 + 2 + 3 + 4 +   1 + 2 + 3 + 4 +   1 + 2 +
e|-----------------|-----------------|-2---x-2---2-2---|-0---x-0--------0---
B|-----------------|-----------------|-3---x-3---3-2---|-0---x-0--------0---
G|-----------------|-----------------|-4---x-4---4-4---|-1---x-1--------1---
D|-----------4---2-|-----------2-----|-4---x-4---4-4---|-2---x-2--------2---
A|-------2-4-------|-------2-4---4-2-|-2---x-2---2-2---|-2---x-2--------2---
E|-2---------------|-----------------|-----------------|-0---x-0--------0---




                                                                               413
Vincent Vallières - Tom

Le B est en fait un Cb

     Ebm    Gb Bsus2 Dbsus2 Bb
e|----6-----2-----2-----4-----6----
B|----7-----2-----2-----4-----6----
G|----8-----3-----4-----6-----7----
D|----8-----4-----4-----6-----8----
A|----6-----4-----2-----4-----8----
E|----------2-----------------6----


Ebm           Gb            Bsus2                DbBsus2
    Tom vit à temps partiel entre ses trois jobs
Ebm                  Gb   Bsus2         Dbsus2
    Ses temps libres      yé passe su'un buzz
Ebm              Gb             Bsus2         Dbsus2
    Y prend son pied avec son ex qui vit à côté dans un duplex
Ebm               Gb                   Bsus2             Dbsus2
    C'est pas parfait mais c'est moins frette qu'une branlette su' l'internet

Ebm      Gb       Bsus2     Dbsus2

Ebm                Gb              Bsus2            Dbsus2
    Tom s'est fait chum avec le poil qui vit en bas
Ebm            Gb               Bsus2        Dbsus2
    Le soir souvent se retrouve là à jammer du Metallica
Ebm                   Gb              Bsus2         Dbsus2
    De la pièce toute en boucane émane "Enter Sandman"
Ebm            Gb           Bsus2        Dbsus2            Ebm     Bb
    Et dans le bruit immense Tom oublie tout et entre en transe


Bsus2       Gb    Dbsus2        Gb
    Et en attendant Tom attend rien
Ebm          Dbsus2       Bsus2     Gb
    Flâne et trippe jusqu'au matin
Bsus2            Gb   Dbsus2     Gb
    Une guit' un fuzz un bat un buzz
Ebm              Dbsus2      Bsus2      Dbsus2
    On manque de rien icitte on est ben


Ebm              Gb      Bsus2              Dbsus2
    Tom tente le diable depuis tant d'années
Ebm                   Gb                    Bsus2      Dbsus2
    Oui, le tire même des fois par la queue le premier du mois arrivé
Ebm              Gb            Bsus2        Dbsus2
    Dans son pays supposément libre et égal
Ebm             Gb                   Bsus2              Dbsus2          Ebm
    Tom est pas dupe des beaux projets qui se votent au congrès libéral




                                                                                414
Ebm           Gb                Bsus2     Dbsus2
    Canté sur sa paillasse l'ami Tom rêvasse
Ebm          Gb                    Bsus2           Dbsus2
    Avoir un band heavy qui marche comme Slayer, Maiden ou Anthtrax
Ebm               Gb                Bsus2          Dbsus2
    Et Tom se taperait des pétasses tout en se maganant la face
Ebm          Gb              Bsus2               Dbsus2         Ebm         Bb
    De ses visions un peu bancales Tom tire un sommeil hibernal


Bsus2       Gb    Dbsus2        Gb
    Et en attendant Tom attend rien
Ebm          Dbsus2       Bsus2     Gb
    Flâne et trippe jusqu'au matin
Bsus2            Gb   Dbsus2     Gb
    Une guit' un fuzz un bat un buzz
Ebm              Dbsus2      Bsus2      Dbsus2
    On manque de rien icitte on est ben


Ebm                         Gb
    Tom vit à temps partiel entre ses trois jobs
Ebm                               Gb
    Dans la musique pesante c'est là que tom déroge
Ebm                            Gb
    Et fête encore ce soir la paix avec entrain
Ebm                         Gb               Bsus2         Dbsus2
    c'est son remède contre la bêtise humaine grosse comme une américaine


Bsus2       Gb    Dbsus2        Gb
    Et en attendant Tom attend rien
Ebm          Dbsus2       Bsus2     Gb
    Flâne et trippe jusqu'au matin
Bsus2            Gb   Dbsus2     Gb
    Une guit' un fuzz un bat un buzz
Ebm              Dbsus2      Bsus2      Dbsus2
    On manque de rien icitte on est ben

Bsus2       Gb    Dbsus2        Gb
    Et en attendant Tom attend rien
Ebm          Dbsus2       Bsus2     Gb
    Flâne et trippe jusqu'au matin
Bsus2            Gb   Dbsus2     Gb
    Une guit' un fuzz un bat un buzz
Ebm              Dbsus2      Bsus2 <- finale
    On manque de rien icitte on est ben




                                                                                 415
Violent Femmes - Blister In The Sun

Cx : x32013


Intro:
   G       C       G       C         G       C       G
   1 - + - 2 - + - 3 - + - 4 - + -   1 - + - 2 - + - 3 - + - 4 - + -
e|---------------------------------|-------------------x-x-----x-x---|
B|---------------------------------|-------------------x-x-----x-x---|
G|---------------------------------|-------------------x-x-----x-x---|
D|---------------------------------|-------------------x-x-----x-x---|
A|-----2---3---2-----2-----3---2---|-----2---3---2-----x-x-----x-x---|
E|-3-----3-------3-------3---------|-3-----3-------3---x-x-----x-x---|

   G       C       G       C         G       C       G
   1 - + - 2 - + - 3 - + - 4 - + -   1 - + - 2 - + - 3 - + - 4 - + -
e|---------------------------------|-------------------x-x-----x-x---|
B|---------------------------------|-------------------x-x-----x-x---|
G|---------------------------------|-------------------x-x-----x-x---|
D|---------------------------------|-------------------x-x-----x-x---|
A|-----2---3---2-----2-----3---2---|-----2---3---2-----x-x-----x-x---|
E|-3-----3-------3-------3---------|-3-----3-------3---x-x-----x-x---|


G   C    G    C    G   C    G   x
G   C    G    C    G   C    G   x

G            C        G         C     G       C          G
When I’m out walking I strut my stuff and I’m so strung out
    G          C         G    c     G       C          G
I’m high as a kite and I just might stop to check you out

          Em        C
Let me go on like I blister in the sun
          Em      C                     D
Let me go on big hands I know your the one

G        C      G         C      G       C            G
Body and beats I stain my sheets I don’t even know why
G      C      G             C  G      C               G
My girlfriend she’s at the end she is starting to cry

          Em        C
Let me go on like I blister in the sun
          Em      C                     D
Let me go on big hands I know your the one


G   C    G    C    G   C    G   x
G   C    G    C    G   C    G   x
G   Cx   G    Cx   G   Cx   G   x
G   Cx   G    Cx   G   Cx   G   x




                                                                         416
G            C        G            C     G     C          G
When I’m out walking I strut my stuff and I’m so strung out
    G          C         G     c       G     C          G
I’m high as a kite and I just might stop to check you out
G            C        G            C     G     C          G
When I’m out walking I strut my stuff and I’m so strung out
    G          C         G     c       G     C          G
I’m high as a kite and I just might stop to check you out
G        C       G         C         G     C          G
Body and beats I stain my sheets I don’t even know why
G      C           G         C   G       C            G
My girlfriend she’s at the end she is starting to cry
G            C        G            C     G     C          G
When I’m out walking I strut my stuff and I’m so strung out
    G          C         G     c       G     C          G
I’m high as a kite and I just might stop to check you out


          Em        C
Let me go on like I blister in the sun
          Em      C                     D
Let me go on big hands I know your the one


G   C   G   C   G   C   G   x
G   C   G   C   G   C   G   x




                                                              417
Weezer - Island In The Sun

    Em Am D     G    EmX AmX DX GX      D5 G5 C5 A5
e|--3---5---2---3--|--0---0---2---3--|--------------
B|--5---5---3---3--|--0---1---3---0--|--------------
G|--4---5---2---4--|--0---2---2---0--|--7-----5-----
D|-----------------|--2---2---0---0--|--7--5--5--7--
A|-----------------|--2---0-------2--|--5--5--3--7--
E|-----------------|--0-----------3--|-----3-----5--


Intro (et riff du couplet):
    Em      Am      D       G
    1 - + - 2 - + - 3 - + - 4 - + -
e|--3---3-5-5---5-2---2-2-3-3---3----|
B|--5---5-5-5---5-3---3-3-3-3---3----|
G|o-4---4-5-5---5-2---2-2-4-4---4---o|
D|o---------------------------------o|
A|-----------------------------------|
E|-----------------------------------|


Em    Am     D   G
                     hip hip
Em    Am     D   G
                     hip hip
Em    Am     D   G
                     hip hip
Em    Am     D   G
                     hip hip


Em    Am               D   G
         When you're on a holiday
Em    Am             D       G
         You can't find the words to say
Em    Am           D           G
         All the things that come to you
Em    Am        D      G
         And I wanna feel it too


EmX    AmX       DX        GX
          On an island in the sun
EmX   AmX              DX           GX
          We'll be playing and having fun
EmX   AmX               DX       GX
          And it makes me feel so fine
EmX        AmX      DX        GX
    I can't control my brain


Em    Am     D   G
                     hip hip
Em    Am     D   G
                     hip hip




                                                       418
Em    Am               D     G
         When you're on a golden sea
Em    Am             D         G
         You don't need no memory
Em    Am           D       G
         Just a place to call your own
Em    Am         D       G
         As we drift into the zone


EmX    AmX       DX        GX
          On an island in the sun
EmX   AmX              DX           GX
          We'll be playing and having fun
EmX   AmX               DX       GX
          And it makes me feel so fine
EmX        AmX      DX        GX
    I can't control my brain


D5            G5
   We'll run away together
D5                  G5
   We'll spend some time forever
C5             A5          D5
   We'll never feel bad anymore...   hip hip


Em    Am     D   G
                     hip hip
Em    Am     D   G
                     hip hip


Solo:
   Em      Am      D       G         Em      Am      D       G
   1 - + - 2 - + - 3 - + - 4 - + -   1 - + - 2 - + - 3 - + - 4 - + -
e|---------------------------------|---------------------------------|
B|---------------------------------|---------------------------------|
G|-----------7-9-7-----------------|---------------------------------|
D|--------------------10-9----10-9-|-------------9-7-----------------|
A|---------------------------------|-----------7--------10-9----10-10|
E|---------------------------------|---------------------------------|

   Em      Am      D       G         Em      Am      D       G
   1 - + - 2 - + - 3 - + - 4 - + -   1 - + - 2 - + - 3 - + - 4 - + -
e|---------------------------------|---------------------------------|
B|---------------------------------|---------------------------------|
G|-------------9-7-----------------|---------------------------------|
D|--------------------10-9----10-9-|-------------9-7-----------------|
A|----------10---------------------|-----------7--------10-9----10-10|
E|---------------------------------|---------------------------------|




                                                                         419
EmX    AmX       DX        GX
          On an island in the sun
EmX   AmX              DX           GX
          We'll be playing and having fun
EmX   AmX               DX       GX
          And it makes me feel so fine
EmX        AmX      DX        GX
    I can't control my brain


D5            G5
   We'll run away together
D5                  G5
   We'll spend some time forever
C5             A5          D5
   We'll never feel bad anymore...   hip hip


Em    Am     D   G
                     hip hip
Em    Am     D   G
                     hip hip
Em    Am     D   G
                     hip hip
Em    Am     D   G
                     hip hip

Until the end (fade out)




                                               420
Weezer - The Sweater Song

Intro:
    Gx      Cx        Dx      Cx
    1 + 2 + 3 + 4 +   1 + 2 + 3 + 4 +
e|------------------|------------------|
B|--------0-------0-|-------0-------0--|
G|o-----3-------3---|-----5-------3---o|
D|o---2-------2-----|---4-------2-----o|
A|----------3-------|-5-------3--------|
E|--3---------------|------------------|


Couplet:
    G       C         D       C
    1 + 2 + 3 + 4 +   1 + 2 + 3 + 4 +
e|--3-3-3-3-0-0-0-0-|-2-2-2-2-0-0-0-0--|
B|--0-0-0-0-1-1-1-1-|-3-3-3-3-1-1-1-1--|
G|o-0-0-0-0-0-0-0-0-|-2-2-2-2-0-0-0-0-o|
D|o-0-0-0-0-2-2-2-2-|-0-0-0-0-2-2-2-2-o|
A|--2-2-2-2-3-3-3-3-|---------3-3-3-3--|
E|--3-3-3-3---------|------------------|


Refrain:
    G5      C5        D5      C5
    1 + 2 + 3 + 4 +   1 + 2 + 3 + 4 +
e|------------------|------------------|
B|------------------|------------------|
G|o---------5-5-5-5-|-7-7-7-7-5-5-5-5-o|
D|o-5-5-5-5-5-5-5-5-|-7-7-7-7-5-5-5-5-o|
A|--5-5-5-5-3-3-3-3-|-5-5-5-5-3-3-3-3--|
E|--3-3-3-3---------|------------------|


Gx   Cx   Dx   Gx     8x


G        C    D        C
  Ah me, Baby, Goddamn, I am
G      C        D        C
  I can sing and hear me, know me

G5        C5         D5            C5
   If you want to destroy my sweater
G5           C5          D5     C5
   Pull this thread as I walk away


Gx   Cx   Dx   Gx     2x


G        C     D         C
  Oh no, It go, It gone, Bye-Bye (Bye!)
G      C         D     C
  Do I, I think, I sink and I die




                                           421
G5        C5         D5            C5
   If you want to destroy my sweater
G5           C5          D5     C5
   Pull this thread as I walk away (as I walk away)
G5            C5         D5         C5
   Watch me unravel I'll soon be naked
              G5                   C5         D5     C5
Lying on the floor, lying on the floor, I've come undone


Solo:
Bb5   Eb5      F5    Eb5   4x


G5        C5         D5            C5
   If you want to destroy my sweater
G5           C5          D5     C5
   Pull this thread as I walk away (as I walk away)
G5            C5         D5         C5
   Watch me unravel I'll soon be naked
              G5                   C5         D5     C5
Lying on the floor, lying on the floor, I've come undone


G5         C5         D5             C5   Bb5
   I don't want to destroy your tank-top
G5          C5               D5     C5   Bb5
   Let's be friends and just walk away
G5         C5                   D5              C5         B5
   Hate to see you lyin' there in your Superman skivvies
G5              C5          D5      C5
   Lying on the floor, I've come undone


G5   C5   D5   C5   10x

G5 <- final




                                                                422
Wilfred Le Bouthillier - Amène-toi chez nous

Capot à la 3e frète, les tablatures sont écrites en considérant
le capot comme la frète "0", donc quand c'est écrit "0" sur les
tabs, c'est en fait la 3e frète, Am est en fait Cm, etc...

Petit riff de l'intro (et du refrain):

    Am              G          C          E         Am
e|--0---0-------0---3----------0----------0---------0---|
B|--1---1-------1---3----------1----------0---------1---|
G|--2---2-------0---4---...----0---...----1--...----2---|
D|--2---2-------2---5----------2----------2---------2---|
A|--0---0---2---3---5----------3----------2---------0---|
E|----------------------------------------0-------------|

Intro: Am   G    C    E
       Am   G    C    E    Am


                    Am                        F
Si le coeur te fait mal, si tu ne sais plus rire
                   G7                    C
Si tu ne sais plus être gai, comme autrefois
                    F                      Dm
Si le cirque est parti, si tu n'as pu le suivre
               G7                      C
Amène-toi chez nous, je t'ouvrirai les bras
                      F                       Dm
Je n'ai rien d'un bouffon qui déclanche les rires
                    E                           Am
Mais peut-être qu'à deux, nous trouverons la joie, Viens!


                  Am                          F
Si tu ne peux pas mordre, dans la vie qui t'emporte
                    G7                      C
Parce que c'est la vie qui te mord, chaque jour
                F                             Dm
Si tu ne peux répondre, aux coups, qu'elle te porte,
               G7                     C
Amène-toi chez-nous, je serai dans ma cour
                  F                      Dm
Je ne sais pas guérir, je ne sais pas me battre
                     E                          Am
Mais peut-être qu'à quatre, nous trouverons le tour, Viens!



Am           G                        C
N'oublie pas que ce sont les gouttes d'eau
       E                       Am
Qui alimentent le creux des ruisseaux
          G                        C
Si les ruisseaux savent trouver la mer
          E                     Am
Peut-être trouverons-nous la lumière!




                                                                  423
                    Am                        F
Si tu cherches à savoir le chemin qu'il faut suivre
                     G7                          C
Si tu cherches à comprendre ce pourquoi tu t'en vas
                  F                 Dm
Si tu vois ton bateau voguer à la dérive,
               G7                          C
Amène-toi chez nous, j'aurai du rhum pour toi
                  F                     Dm
Je ne suis pas marin, je vis loin de la rive
                     E                        Am
Mais peut-être qu'à cent, nous trouverons la voie, Viens!


            Am                         F
Si tu t'interroges, sur le secret des choses,
                G7                       C
Si devant l'inconnu, tu ne sais que penser
                   F                        Dm
Si l'on ne répond pas, aux questions que tu poses
               G7                    C
Amène-toi chez nous, je saurai t'écouter
             F                              Dm
La vérité m'échappe, je n'en sais pas grand-chose
                     E                         Am
Mais peut-être qu'à mille, nous saurons la trouver, Viens!



Am           G                        C
N'oublie pas que ce sont les gouttes d'eau
       E                       Am
Qui alimentent le creux des ruisseaux
          G                        C
Si les ruisseaux savent trouver la mer
          E                     Am
Peut-être trouverons-nous la lumière!

Am           G                        C
N'oublie pas que ce sont les gouttes d'eau
       E                       Am
Qui alimentent le creux des ruisseaux
          G                        C
Si les ruisseaux savent trouver la mer
          E                     Am
Peut-être trouverons-nous la lumière!

Viens!   Viens!    Viens!




                                                             424
Wilfred Le Bouthillier - Amène-toi chez nous

Version sans capot, un peu rough pour les doigts à cause de
tous les accords barrés. Voici comment je les joue:

      Cm   Ab Bb7    Eb     Fm       G
e|----3----4----6----6----1----8-----3----|
B|----4----4----6----8----1----9-----3----|
G|----5----5----7----8----1-ou-10----4----|
D|----5----6----6----8----3----10----5----|
A|----3----6----8----6----3----8-----5----|
E|---------4----6---------1----------3----|



Petit riff de l'intro (et du refrain):

    Cm              Bb         Eb         G         Cm
e|--3---3------(6)--6----------6----------3---------3---|
B|--4---4------(8)--6----------8----------3---------4---|
G|--5---5------(8)--7---...----8---...----4--...----5---|
D|--5---5------(8)--8----------8----------5---------5---|
A|--3---3---5---6---8----------6----------5---------3---|
E|----------------------------------------3-------------|



Intro: Cm   Bb   Eb   G
       Cm   Bb   Eb   G    Cm

                    Cm                       Ab
Si le coeur te fait mal, si tu ne sais plus rire
                   Bb7                  Eb
Si tu ne sais plus être gai, comme autrefois
                    Ab                    Fm
Si le cirque est parti, si tu n'as pu le suivre
               Bb7                     Eb
Amène-toi chez nous, je t'ouvrirai les bras
                      Ab                     Fm
Je n'ai rien d'un bouffon qui déclanche les rires
                    G                         Cm
Mais peut-être qu'à deux, nous trouverons la joie, Viens!


                   Cm                          Ab
Si tu ne peux pas mordre, dans la vie qui t'emporte
                    Bb7                     Eb
Parce que c'est la vie qui te mord, chaque jour
                Ab                             Fm
Si tu ne peux répondre, aux coups, qu'elle te porte,
               Bb7                    Eb
Amène-toi chez-nous, je serai dans ma cour
                   Ab                    Fm
Je ne sais pas guérir, je ne sais pas me battre
                      G                         Cm
Mais peut-être qu'à quatre, nous trouverons le tour, Viens!




                                                              425
Cm           Bb                       Eb
N'oublie pas que ce sont les gouttes d'eau
       G                       Cm
Qui alimentent le creux des ruisseaux
          Bb                       Eb
Si les ruisseaux savent trouver la mer
          G                    Cm
Peut-être trouverons-nous la lumière!


                    Cm                        Ab
Si tu cherches à savoir le chemin qu'il faut suivre
                     Bb7                         Eb
Si tu cherches à comprendre ce pourquoi tu t'en vas
                 Ab                 Fm
Si tu vois ton bateau voguer à la dérive,
               Bb7                        Eb
Amène-toi chez nous, j'aurai du rhum pour toi
                 Ab                     Fm
Je ne suis pas marin, je vis loin de la rive
                     G                        Cm
Mais peut-être qu'à cent, nous trouverons la voie, Viens!


            Cm                        Ab
Si tu t'interroges, sur le secret des choses,
                 Bb7                    Eb
Si devant l'inconnu, tu ne sais que penser
                    Ab                      Fm
Si l'on ne répond pas, aux questions que tu poses
                Bb7                  Eb
Amène-toi chez nous, je saurai t'écouter
             Ab                             Fm
La vérité m'échappe, je n'en sais pas grand-chose
                       G                       Cm
Mais peut-être qu'à mille, nous saurons la trouver, Viens!



Cm           Bb                       Eb
N'oublie pas que ce sont les gouttes d'eau
       G                       Cm
Qui alimentent le creux des ruisseaux
          Bb                       Eb
Si les ruisseaux savent trouver la mer
          G                    Cm
Peut-être trouverons-nous la lumière!

Cm           Bb                       Eb
N'oublie pas que ce sont les gouttes d'eau
       G                       Cm
Qui alimentent le creux des ruisseaux
          Bb                       Eb
Si les ruisseaux savent trouver la mer
          G                    Cm
Peut-être trouverons-nous la lumière!

Viens!   Viens!    Viens!




                                                             426
Yannick St-Arnaud - Ta Femme

Rythmes de base:

   F#m                        D           C#
    1 + 2 + 3 + 4 +           1 + 2 + 3 + 4 +
e|-----9-----9-----9-----9--|----5-----5-----4-----4---|
B|-----10----10----10----10-|----7-----7-----6-----6---|
G|o----11----11----11----11-|----7-----7-----6-----6--o|
D|o----11----11----11----11-|----7-----7-----6-----6--o|
A|--9-----------9-----------|-5-----------4------------|
E|--------9-----------9-----|-------5-----------4------|

   D                 C#                Bm                C#
   1 + 2 + 3 + 4 +   1 + 2 + 3 + 4 +   1 + 2 + 3 + 4 +   1 + 2 + 3 + 4 +
e|---5---5---5---5-|---4---4---4---4-|---2---2---2---2-|---4---4---4---4-|
B|---7---7---7---7-|---6---6---6---6-|---3---3---3---3-|---6---6---6---6-|
G|---7---7---7---7-|---6---6---6---6-|---4---4---4---4-|---6---6---6---6-|
D|---7---7---7---7-|---6---6---6---6-|---4---4---4---4-|---6---6---6---4-|
A|-5---5---5---5---|-4---4---4---4---|-2---2---2---2---|-4---4---4---4---|
E|-----------------|-----------------|-----------------|-----------------|


Intro: F#m          D   c#       4x

F#m                               D
  Ta femme, tu n'la connais pas bien
              C#                    F#m
Elle barre la porte et prend son bain
                                     D
Avec toute sorte de p'tits flacons
             C#                      D
qui font des bulles et des ballons
                              C#
Elle s'achète des déshabillés
                           Bm
Mais tu la vois pas les porter
                                 C#
Quand tu travailles, tu es crevé
                             F#m
Tu vas vacher d'vant la télé

                           D
La la la lay, la la la lay
         C#                F#m
La la la lay, la la la lay                2x




                                                                             427
                              D
Ta femme tu n'la connais pas bien
            C#                 F#m
Elle a d'la gueule, elle a du chien
                            D
Toi le chien tu vas le prom'ner
               C#                    D
au moins deux heures après l'souper
                                 C#
Pendant que le chien te promène
                              Bm
ta femme devient un phénomène
                                C#
C'est peut-être la muse du voisin
                                 F#m
Quand elle se déguise en putain

                           D
La la la lay, la la la lay
         C#                F#m
La la la lay, la la la lay                   2x

                              D
Ta femme tu n'la connais pas bien
              C#                   F#m
Elle aime les fleurs et le bon vin
                              D
Toi, tu te contentes de bière
          C#                  D
et y'a du hochey tout l'hiver
                              C#
Pendant que ta femme magasine
                         Bm
avec une supposée copine
                                     C#
Ta femme elle aime la belle musique
                                 F#m
Et les gens qui sont magnétiques

                           D
La la la lay, la la la lay
         C#                F#m
La la la lay, la la la lay                   2x


                              D
Ta femme tu n'la connais pas bien
              C#             F#m
Elle aime les chants d'alexandrin
                            D
Elle se fout de la prose partout
       C#                         D       <- on frappe les accord une
Sur la charte de ses rendez-vous             fois chaque jusqu'au refrain
                            C#
Elle aime les parfums de l'amour
                                Bm
mais toi t'es aveugle et t'es sourd
                              C#
Ta femme tu n'la connais pas bien
                                    F#m
Et comment, qu'elle se tape le voisin
                                                                            428
                           D
La la la lay, la la la lay
         C#                F#m
La la la lay, la la la lay                   2x

                              D
Ta femme tu n'la connais pas bien
        C#                     F#m
La télé t'as gravement atteint
                                 D
Madame elle n'est pas là ce soir
             C#             D             <- on frappe les accord une
Elle s'est vétue de léopard                  fois chaque jusqu'au refrain
                         C#
Elle est allée au cinéma
                                     Bm
Voir un film tourné sous les draps
                            C#
Moi, ta femme je la connais bien
                              F#m
Car je sais qui est le voisin

                            D
La la la lay , la la la lay
         C#                 F#m
La la la lay , la la la lay...




                                                                            429
Zachary Richard - Jean Batailleur

              Bm               G
Je m'appelle Jean, Jean Batailleur
            A                    Bm
Je m'ennuie tant que ça me fait peur
               G         A
Je suis orphelin, abandonné
                 F#            Bm
Sous la pleine lune on m'a trouvé


           Bm                G
Au bout du monde où je suis né
           A                 Bm
La vie est dure, l'amour cassé
              G                   A
C'est pas la peine de faire comme si
             F#                Bm
Tout est foutu, tout est pourri
           G               A
La vie est dure y'a pas d'espoir
          F#               Bm
Quand on est mauvais comme moi


            Bm                    G
Passe la bouteille, sers moi un verre
            A                   Bm
Plus que je bois, plus je vois clair
              G              A
Y'a pas d'avenir, y'en aura pas
              F#            Bm
Y'a qu'l'amertume et le tracas
            G             A
Des fois je vois l'étoile rouge
              F#               Bm
J'entends l'appel, je sens le loup


Interlude: Bm

              Bm             G
Prends ton couteau, allons dehors
              A             Bm
Viens donc danser avec 'Tit Jean
           G             A
À coup de poing et au fusil
                 F#            Bm
Je suis le plus fort dans le pays
         G             A
Ça m'a donné que de l'ennui
                 F#              Bm
Des points de suture et des ennemis


Interlude: Bm




                                        430
              Bm             G
Je m'appelle Jean, Jean Batailleur
            A                     Bm
Je m'ennuie tant que ça me fait peur
              G          A
Je suis orphelin, abandonné
                 F#            Bm
Sous la pleine lune on m'a laissé


Interlude: Bm


To connais quoi mo té gain

Mo té gain pas rien


Répéter en fade out jusqu'à la fin




                                       431
Zébulon - R'viens pas trop tard

    A      C      B      F    Asus2    C6     B7     Em     G      F#
e|--5------3------2------1------0------0------2------0------3------2--|
B|--5------5------4------1------0------1------0------0------3------2--|
G|--6------5------4------2------2------2------2------0------4------3--|
D|--7------5------4------3------2------2------1------2------5------4--|
A|--7------3------2------3------0------3------2------2------5------4--|
E|--5--------------------1---------------------------0------3------2--|


Intro (et riff principal): (2x)
    A               C                 B               F
    1 - + - 2 - + - 3 - + - 4 - + -   1 - + - 2 - + - 3 - + - 4 - + -
e|----------------------------------|----------------------------------|
B|----------5---5-5---------5---5-5-|---------4---4-4---------1--------|
G|o---------6---6-6---------5---5-5-|---------4---4-4---------2-------o|
D|o---------7---7-7-----5---5---5-5-|-----4---4---4-4---------3-------o|
A|------7-----------3---------------|-2-------------------3------------|
R|--5-------------------------------|-----------------1-----------1-/--|


A                      C                      B
Fais-le ton trip, fais-le, c'que t'as à faire
                            F
Tu l'sais que j't'un gars ouvert
A                             C               B
J'veux qu't'étouffes, j'veux pas tu souffres
                            F
J'veux surtout pas t'pomper l'air

A                            C
Fais donc c'qui t'tente, fais donc c'qui t'tente
   B                              F
Un point c'est tout pis on verra après ce qui m'dérange
A                            C
Fais donc c'qui t'tente, fais donc c'qui t'tente
     B                       F
Vas-y la voir ta gang, ton ex pis toute la patente

A      C               B     F
Mais   r'viens pas trop tard
A      C               B     F
Mais   r'viens pas trop tard

  A                               C
J't'en train d'te perdre, de toute façon
B                         F
Je l'vois ben qu't'as pu d'façon
A                       C
Vas faire un tour, vas faire l'amour
B                  F
Avec le premier frisson




                                                                           432
A                            C
Fais donc c'qui t'tente, fais donc c'qui t'tente
      B                                F
Moi j'vais rester icitte comme un beau loser à t'attendre
A                            C
Fais donc c'qui t'tente, fais donc c'qui t'tente
    B                        F
Vas-y crouser le doorman, va faire la file d'attente

Asus2 C6                   B7     F
Mais r'viens pas trop      tard
Asus2 C6                   B7     F
Mais r'viens pas trop      tard, j'pourrais être mort

Solo: Asus2     C6    B7       F             (4x)

Em                     G
Va   faire ta vie dans un autre pays
F#                        C
Va   faire ta vedette sur une autre planète
Em                   G
Va   t'faire du fun avec une autre personne
F#                     C
Va   t'en à jamais, va t'en, va t'en à jamais

Asus2 C6                B7         F
Mais r'viens   pas trop tard
Asus2 C6                B7         F
Mais r'viens   pas trop tard
Asus2 C6                B7         F
Mais r'viens   pas trop tard
Asus2 C6                B7         F
Mais r'viens   pas trop tard

Y pourrait être trop tard

    A               C                 B               F
    1 - + - 2 - + - 3 - + - 4 - + -   1 - + - 2 - + - 3 - + - 4 - + -
e|----------------------------------|-------------------------1--------|
B|----------5---5-5---------5---5-5-|---------4---4-4---------1--------|
G|o---------6---6-6---------5---5-5-|---------4---4-4-------2---------o|
D|o---------7---7-7-----5---5---5-5-|-----4---4---4-4-----3-----------o|
A|------7-----------3---------------|-2-----------------3--------------|
R|--5-------------------------------|-----------------1-----------1-/--|

2x et finale sur Asus2




                                                                           433
Zébulon - Y Fait Chaud

      Am    Em    C     E+    G     D
e|----0-----0-----0-----x-----3-----2----
B|----1-----0-----1-----1-----0-----3----
G|----2-----0-----0-----1-----0-----2----
D|----2-----2-----2-----2-----0-----0----
A|----0-----2-----3-----x-----2----------
E|----------0-----------------3----------


Intro:
Am Em              8x

Am                    Am Em      Em          Am Em Am Em
     Y fait chaud  aujourd'hui sur l'Plateau
Am                 Em                  Am             Em            Am Em Am      Em
   J'ai beau rien faire mais l'eau me pisse quand même dans le dos
Am              Em                  Am            Em         Am Em Am Em
   À quincaillerie y sont back order, y ont pu de ventilateurs
Am           Em               Am          Em            Am Em Am Em
   À piscine Laurier y a une file d'attente d'une heure            ooooooooh

C           AmEm         E+       G                      D
     Couché dans mon bain avec de l'eau, de la glace pis du vin
C           Em   Am         E+              G              D
  Je me rappelle des matins, toué deux dans ta piscine de banlieue

     Je me rappelle qu'on était ben

Am     Em          4x

Am              Em    Am         Em             Am Em Am Em
   Y fait chaud    aujourd'hui sur l'Plateau
Am             Em          Am       Em       Am Em Am Em
   La rue Chambord a des odeurs de Mexico
Am                 Em                     Am                Em          Am   Em    Am   Em
   L'asphalte est chaude, les pieds des p'tits voisins portugais le savent
Am          Em                Am       Em        Am Em Am Em
   De la montagne descend un grand coulis de lave      ooooooooh

C           AmEm         E+       G                            D
     Couché dans mon bain avec de l'eau, de la glace pis       du vin
C           Em   Am         E+             G                   D
  Je me rappelle des matins, tout nus dans ta piscine de       banlieue

     Je me rappelle qu'on était ben

Am     Em          16x

C           AmEm          E+                G             D
     Couché dans mon bain, moins j'ai de vin plus j'ai de souvenirs divins
C            Em Am             E+              G             D
  Je me rappelle tes deux seins plongeant dans ta piscine de banlieue

     Je me rappelle qu'on était cool étendus dans ton jardin

     Je me rappelle qu'on était ben

Am     Em          8x

                                                                                             434
Am         Em    Am      Em     Am Em Am Em
   De la slush avec un popsicle
Am            Em                  Am         Em
   Entre les bulles je me regarde flotter la canicule
Am Em Am                  Em
           Je m'ennuie de toi, je fabule

Am   Em...
        Je fabule...

Fade out...




                                                        435
Par Les Autres

     Cette section contient les tablatures provenant des fichiers contenus
dans le répertoire « Par Les Autres ».




                                                                             436
Nancy Sinatra - Bang Bang

I didn't tab this song, I took it off the internet.
http://www.ultimate-guitar.com/tabs/n/nancy_sinatra/bang_bang_ver4_tab.htm

I also took the lyrics, as if you know the main patterns, they are sufficient
to play the song.
http://www.stlyrics.com/lyrics/killbill/bangbangmybabyshotmedown.htm

--------------------------------------------------------------------------------

I was five and he was six
We rode on horses made of sticks
He wore black and I wore white
He would always win the fight

Bang   bang,   he shot me down
Bang   bang,   I hit the ground
Bang   bang,   that awful sound
Bang   bang,   my baby shot me down.

Seasons came and changed the time
When I grew up, I called him mine
He would always laugh and say
"Remember when we used to play?"

Bang   bang,   I shot you down
Bang   bang,   you hit the ground
Bang   bang,   that awful sound
Bang   bang,   I used to shoot you down.

Music played, and people sang
Just for me, the church bells rang.

Now he's gone, I don't know why
And till this day, sometimes I cry
He didn't even say goodbye
He didn't take the time to lie.

Bang   bang,   he shot me down
Bang   bang,   I hit the ground
Bang   bang,   that awful sound
Bang   bang,   my baby shot me down...

--------------------------------------------------------------------------------

Song:          Bang bang
Artist:        Nancy Sinatra
Album:         Kill Bill Soundtrack
Tabbed by:     Dan Benz (DanSumthing@aol.com)

This here's the opening theme from Kill Bill Vol. 1.
Really cool and spooky, and fairly easy to play.
I am sure this tab is extremely accurate. I know this because I separated the music
from the lyrics using Sound Forge 6.0, so I could hear the notes more clearly. You
can do this yourself, actually, because in this song, the guitar part plays only in
the left audio channel. Cover up or unplug your right speaker to get rid of the
vocal part.



                                                                                      437
In general, I tabbed the notes so that they line up closely with the words that
they are played with. It's not exact, but it will give you some idea of timing.

Necessary Info:
(1) - Ghost note. Play very faintly.
 \ - Slide. You all know how this works.

Played on an electric guitar with clean
settings, reverb, and plenty of tremolo.

    Intro + Main theme
e|----------------------------------0-------------------------1--|
B|--1-----1---------2-----2-1-------1-----2-1---------------1----|
G|------1---3---1---3---3-------3---3---------3-1-0-------1------|
D|----3-------------3-3-------------2---2---------------3--------|
A|----------------------------------3-3---------------3----------|
E|--------------------------------------------------1------------|
                                                            I was

    Verse
e|----------------------------------------------------------|
B|-------------------------------------------1--------------|
G|-----------------------------1-------------1--------------|
D|-----------------------------2-------------1--------------|
A|----------------------------------------------------------|
E|----------------------------------------------------------|
    five and he was six, we rode on horses made of sticks.


e|--3----------------------------------0------------------------------|
B|--4----------------------------------1------------------------------|
G|--3----------------------------------0------------------------------|
D|--5----------------------------------2------------------------------|
A|--6----------------------------------3------------------------------|
E|--------------------------------------------------------------------|
       He wore black and I wore white.    He would always win the fight


    Chorus
e|---------------------1---------------------------1----------|
B|--------------------1---------------------------1-----------|
G|-------------------1---------------------------1------------|
D|------------------3---------------------------3-------------|
A|-----------------3---------------------------3--------------|
E|---------8\1-1-------------------------8\1-1----------------|
   Bang bang.   He shot me down, bang bang. I hit the ground,


e|------------------------------------------------------------|
B|-----------------4--------------------------------5---------|
G|----------------3-------------------------------3-----------|
D|--------------5-------------------------------5-------------|
A|---------8-6-----------------------------6\3----------------|
E|------------------------------------------------------------|
   bang bang.   That awful sound    Bang bang. My baby shot me




                                                                                  438
e|------------------------------------------------------------1--|
B|--1-----1---------2-----2-1-------1-----2-1---------------1----|
G|------1---3---1---3---3-------3---3---------3-1-0-------1------|
D|----3-------------3-3-------------2---2---------------3--------|
A|----------------------------------3-3---------------3----------|
E|--------------------------------------------------1------------|
    down.


    Verse 2
e|-----------------------------------------------------------------------|
B|--------------------------(1)---------------1-----------------------1--|
G|----------------------1-----------------1-----------------------1------|
D|------------------2-----------------1--------------------0-------------|
A|-----------------------------------------------------------------------|
E|-----------------------------------------------------------------------|
   Seasons came and changed the time.       When I grew up I called him mine.


e|------------------------------------------------------------------|
B|--4----------------------------------------------5----------------|
G|--3--------------------------------------------3------------------|
D|--5------------------------------------------5--------------------|
A|--6------------------------------------5\3-3----------------------|
E|------------------------------------------------------------------|
      He would always laugh and say,    "Remember when we used to play


    Chorus 2
e|-------------------------1------------------------------1-----|
B|-----------------------1------------------------------1-------|
G|---------------------1------------------------------1---------|
D|-------------------3------------------------------3-----------|
A|-----------------3------------------------------3-------------|
E|---------8\1-1--------------------------8\1-1-----------------|
   bang bang?"   I shot you down, bang bang. You hit the ground,


e|--------------------2-----------------------------------------|
B|------------------3-------------------------------5-----------|
G|----------------2-------------------------------3-------------|
D|----------------------------------------------5---------------|
A|---------8\6-6-------------------------6\3-3------------------|
E|--------------------------------------------------------------|
   bang bang. That awful sound, bang bang. I used to shoot you


e|--------------------------------------------------1--|
B|--1------1-------2---2-1-----1-----2-1-----------1---|
G|-------1---3-1---3--3----3---3---------3-1-0----1----|
D|-----3-----------3-3---------2---2-------------3-----|
A|-----------------------------3-3--------------3------|
E|---------------------------------------------1-------|
    down.




                                                                                439
    Bridge
e|-----------------------------1---------------------------------------|
B|-----------------------------1--4------------------------------------|
G|-----------------------------1--3------------------------------------|
D|-----------------------------3--5------------------------------------|
A|-----------------------------3--6------------------------------------|
E|---------------------------------------------------------------------|
    Music played and people sang.    Just for me the church bells rang.

***********************************************************************************
e|------------------------------1---------------------------0--| If you are having
B|--2---2---2---4-------2---4---2---2-------1---2---4---2---1--| trouble playing
G|--1---1---1---1-------1---1---1---1-------0---0---0---0---0--| this section, I
D|--3---3---------------3-------3-----------2---3---5---3---2--| have tabbed an
A|-------------------------------------------------------------| easier method at
E|-------------------------------------------------------------| the end of my tab.
***********************************************************************************

    Verse 3
e|------------1------------------------------------------------------------------|
B|-----------1-------------------------------1------------1----------------1-----|
G|----------1-----------------------------1------------1----------------1--------|
D|---------3---------------------------2------------1----------------0-----------|
A|--------3----------------------------------------------------------------------|
E|--8\1-1------------------------------------------------------------------------|
              Now he's gone, I don't know why, and 'til this day sometimes I cry.


e|----------------------------------------------------------------|
B|--4-------------------------------------------5-----------------|
G|--3-----------------------------------------3-------------------|
D|--5---------------------------------------5---------------------|
A|--6---------------------------------6\3-3-----------------------|
E|----------------------------------------------------------------|
       He didn't even say goodbye, he didn't take the time to lie.


    Chorus 3
e|--------------------1----------------------------------1-----------|
B|-------------------1----------------------------------1------------|
G|------------------1----------------------------------1-------------|
D|-----------------3----------------------------------3--------------|
A|----------------3----------------------------------3---------------|
E|---------8\1-1-------------------------------8\1-1-----------------|
   Bang bang.         He shot me down, bang bang.    I hit the ground,


e|-----------------2---------------------------------------0----------------|
B|---------------3--------------------------------------1-------------------|
G|--------------2------------------------------------3----------------------|
D|------------------------------------------------2-------------------------|
A|---------8\6---------------------------------3----------------------------|
E|--------------------------------------------------------------------------|
   bang bang.        That awful sound, bang bang.            My baby shot me




                                                                                      440
e|---------------------------------------------------------1----------------|
B|---1------1-------2---2-1-----1-----2--1-----------------1----------------|
G|--------1---3-1---3--3----3---3------------3---1----0----1----------------|
D|------3-----------3-3---------2---2----------------------3----------------|
A|------------------------------3-3------------------------3----------------|
E|---------------------------------------------------------1----------------|
   down.                                                  (Play, bend down a
                                                           half step w/ bar,
                                                           then release bend)
End of Song.

Alternate version of starred section
****************************************************************
e|----------------------------------------------------------0--|
B|------------------------------6-----------1---2---4---2---1--|
G|--6---6---6---8-------6---8---6---6-------0---0---0---0---0--|
D|--6---6---6---6-------6---6---6---6-------2---3---5---3---2--|
A|--8---8---------------8-------8------------------------------|
E|-------------------------------------------------------------|
****************************************************************




                                                                                441
Classiques

     Cette section contient les tablatures provenant des fichiers contenus
dans le répertoire « Classiques ».




                                                                             442
??? - Greensleeves

   1 + 2 + 3 + 4 + 5 + 6 +   1 + 2 + 3 + 4 + 5 + 6 +   1 + 2 + 3 + 4 + 5 + 6 +
e|-------------------------|-------------0-----1-0---|-------------------------|
B|-------------------------|-1-------3---------------|-3-------0-----------0---|
G|---------------------2---|-------------0-----------|-0-------0---0-----2-0---|
D|-------------------------|-------------------------|---------0---0-----------|
A|-------------------------|-0-------2---3-------3---|-2-----------2-----------|
E|-------------------------|-------------------------|-------------------------|

   1 + 2 + 3 + 4 + 5 + 6 +   1 + 2 + 3 + 4 + 5 + 6 +   1 + 2 + 3 + 4 + 5 + 6 +
e|-------------------------|-------------------------|-------------0-----1-0---|
B|-1-----------------------|-0-----------------------|-1-------3---------------|
G|-2-------2---2-----1-2---|-1-------1-----------2---|-------------0-----------|
D|-------------------------|-------------2-----------|-------------------------|
A|-0-----------3-----------|-------------------------|-0-------2---3-------3---|
E|-------------------------|-0-----------0-----------|-------------------------|

   1 + 2 + 3 + 4 + 5 + 6 +   1 + 2 + 3 + 4 + 5 + 6 +   1 + 2 + 3 + 4 + 5 + 6 +
e|-------------------------|-------------------------|-------------------------|
B|-3-------0-----------0---|-1---0-------------------|-------------------------|
G|-0-------0---0-----2-0---|-2-------2---1-------1---|-2-----------2-----------|
D|---------0---0-----------|-------------0---4-------|-------------------------|
A|-2-----------2-----------|-0-----------------------|-3-----------0-----------|
E|-------------------------|-------------0-----------|-------------------------|

   1 + 2 + 3 + 4 + 5 + 6 +   1 + 2 + 3 + 4 + 5 + 6 +   1 + 2 + 3 + 4 + 5 + 6 +
e|-3-----------3-----2-0---|-------------------------|-------------------------|
B|-1-----------1-------1---|-3-------0-----------0---|-1-----------------------|
G|-0-----------0-------0---|-0-------0---0-----2-0---|-2-------2---2-----1-2---|
D|-2-----------2-----------|-0-------0---0-----------|-------------------------|
A|-------------------------|-2-----------2-----------|-0-----------3-----------|
E|-------------------------|-------------------------|-------------------------|

   1 + 2 + 3 + 4 + 5 + 6 +   1 + 2 + 3 + 4 + 5 + 6 +   1 + 2 + 3 + 4 + 5 + 6 +
e|-------------------------|-3-----------3-----2-0---|-------------------------|
B|-0-----------------------|-1-----------1-------1---|-3-------0-----------0---|
G|-1-------1---------------|-0-----------0-------0---|-0-------0---0-----2-0---|
D|-------------2-----------|-2-----------2-----------|-0-------0---0-----------|
A|-------------------------|-------------------------|-2-----------2-----------|
E|-0-----------0-----------|-------------------------|-------------------------|

   1 + 2 + 3 + 4 + 5 + 6 +   1 + 2 + 3 + 4 + 5 + 6 +
e|-------------------------|-------------------------|
B|-1---0-------------------|-------------------------|
G|-2-------2---1-------1---|-2-----------2-----------|
D|-------------0---4-------|-------------------------|
A|-0-----------------------|-3-----------0-----------|
E|-------------0-----------|-------------------------|




                                                                                   443
??? - Le bon roi Dagobert

                 E     B       E     B       E     B       E
e|----------4--|-4---2-2---0-|-0-----2-----|-4-5-4-2-0-2-|-0-------0-2-|
B|-------------|-------------|-----0-----0-|-------------|-------------|
G|-------------|---4-----2---|---1-----2---|-4-6-4-2-1-2-|---1---1-----|
D|-------------|-2-----------|-------------|-------------|-----4-2-----|
A|-------------|-------2-----|-------2-----|-------2-----|-------------|
E|-------------|-------------|-0-----------|-0-----------|-0-----------|

   E             B             E             B             E     B
e|-4---4-4-5-7-|-2---2-2-0---|-------5-6-7-|-2---2-2---4-|-4---2-2---0-|
B|-------------|---0-------7-|-9---9-------|---5-2-4-----|---------4---|
G|---4---------|---2---------|-------------|-------4-----|---4-----2---|
D|-2-----2-4-6-|-1-----------|---9---------|-------------|-2-----------|
A|-------------|-------2-4-6-|-7-----------|-2-----------|-------3-----|
E|-------------|-------------|-------0---4-|-------------|-------------|


e|-0-----2-----|-4-5-4-2-0-2-|-0-----------|
B|-----2-----2-|-------------|-------------|
G|---1-----2---|-4-6-4-2-1-2-|---1---1-----|
D|-------------|-------------|-----4-2-----|
A|-4-----0-----|-2-----2-----|-------------|
E|-------------|-------------|-0-----------|




                                                                           444
??? - Le p'tit renne au nez rouge

      F     C7    Bb    Gm    C   Bbdim   Dm    G
e|----1-----0-----1-----3-----0-----0-----1-----3------------------------------------------
B|----1-----1-----3-----3-----1-----2-----3-----0------------------------------------------
G|----2-----3-----3-----3-----0-----0-----2-----0------------------------------------------
D|----3-----2-----3-----5-----2-----2-----0-----0------------------------------------------
A|----3-----3-----1-----5-----3-----1-----------2-----------------------------------------
E|----1-----------------3-----------------------3-------------------------------------


F                                              C7
On l'appelait "Nez Rouge", ah comme il était mignon
C7                                              F
Le p'tit renne au nez rouge, rouge comme un lumignon
F                                                     C7
Son p'tit nez faisait rire, chacun s'en moquait beaucoup
C7                                                  F
On allait jusqu'à dire qu'il aimait boire un p'tit coup


Bb          F           Gm      C       F
Une fée qui l'entendit pleurer dans le noir
C             Bbdim          Dm       G   C
Pour le consoler, lui dit : "Viens au Paradis, ce soir
F                                                C7
Comme un ange au nez rouge, tu conduiras dans le ciel
C7                                            F
Avec ton p'tit nez rouge le chariot du Père Noël
C7                   F
Le chariot du Père Noël
C7                   F
Le chariot du Père Noël
C7                   F
Le chariot du Père Noël




                                                                                         445
??? - Romance (Jeux Interdits)

Première partie

e|-7-----7-----7-----|-7-----5-----3-----|-3-----2-----0-----|
B|---0-----0-----0---|---0-----0-----0---|---0-----0-----0---|
G|-----0-----0-----0-|-----0-----0-----0-|-----0-----0-----0-|
D|-------------------|-------------------|-------------------|
A|-------------------|-------------------|-------------------|
E|-0-----------------|-0-----------------|-0-----------------|


e|-0-----3-----7-----|-12----12----12----|-12----10----8-----|
B|---0-----0-----0---|---0-----0-----0---|---0-----0-----0---|
G|-----0-----0-----0-|-----0-----0-----0-|-----0-----0-----0-|
D|-------------------|-------------------|-------------------|
A|-------------------|-------------------|-------------------|
E|-0-----------------|-0-----------------|-0-----------------|


e|-8-----7-----5-----|-5-----7-----8-----|-7-----8-----7-----|
B|---5-----5-----5---|---5-----5-----5---|---7-----7-----7---|
G|-----5-----5-----5-|-----5-----5-----5-|-----8-----8-----8-|
D|-------------------|-------------------|-------------------|
A|-0-----------------|-0-----------------|-------------------|
E|-------------------|-------------------|-7-----------------|


e|-11----8-----7-----|-7-----5-----3-----|-3-----2-----0-----|
B|---7-----7-----7---|---0-----0-----0---|---0-----0-----0---|
G|-----8-----8-----8-|-----0-----0-----0-|-----0-----0-----0-|
D|-------------------|-------------------|-------------------|
A|-------------------|-------------------|-------------------|
E|-7-----------------|-0-----------------|-0-----------------|


e|-2-----2-----2-----|-2-----3-----2-----|-0-----0-----0-----|
B|---0-----0-----0---|---0-----0-----0---|---0-----0-----0---|
G|-----2-----2-----2-|-----2-----2-----2-|-----0-----0-----0-|
D|-------------------|-------------------|-2-----------------|
A|-2-----------------|-2-----------------|-------2-----------|
E|-------------------|-------------------|-------------3-----|


e|-0--------------|
B|-0--------------|
G|-0--------------|
D|----------------|
A|----------------|
E|-0--------------|




Deuxième partie




                                                                 446
e|-4-----4-----4-----|-4-----2-----0-----|-------------------|
B|---0-----0-----0---|---0-----0-----0---|-5-----4-----4-----|
G|-----1-----1-----1-|-----1-----1-----1-|---2-----2-----2---|
D|-------------------|-------------------|-----4-----4-----4-|
A|-------------------|-------------------|-------------------|
E|-0-----------------|-0-----------------|-2-----------------|


e|-------------------|-9-----9-----9-----|-9-----11----9-----|
B|-4-----3-----4-----|---7-----7-----7---|---7-----7-----7---|
G|---2-----2-----2---|-----8-----8-----8-|-----8-----8-----8-|
D|-----4-----4-----4-|-------------------|-------------------|
A|-------------------|-------------------|-------------------|
E|-2-----------------|-7-----------------|-7-----------------|


e|-9-----7-----7-----|-7-----9-----11----|-12----12----12----|
B|---9-----9-----9---|---9-----9-----9---|---9-----9-----9---|
G|-----9-----9-----9-|-----9-----9-----9-|-----9-----9-----9-|
D|-------------------|-------------------|-------------------|
A|-------------------|-------------------|-------------------|
E|-0-----------------|-0-----------------|-0-----------------|


e|-12----11----10----|-9-----9-----9-----|-9-----7-----5-----|
B|---9-----9-----9---|---5-----5-----5---|---5-----5-----5---|
G|-----9-----9-----9-|-----6-----6-----6-|-----6-----6-----6-|
D|-------------------|-------------------|-------------------|
A|-------------------|-0-----------------|-0-----------------|
E|-0-----------------|-------------------|-------------------|


e|-4-----4-----4-----|-4-----5-----2-----|-0-----0-----0-----|
B|---0-----0-----0---|---4-----4-----4---|---0-----0-----0---|
G|-----1-----1-----1-|-----2-----2-----2-|-----1-----1-----1-|
D|-------------------|-------------------|-2-----------------|
A|-------------------|-2-----------------|-------2-----------|
E|-0-----------------|-------------------|-------------4-----|


e|-0--------------|
B|-0--------------|
G|-1--------------|
D|-2--------------|
A|-2--------------|
E|-0--------------|




                                                                 447
??? - Yankee Doodle

   1 - + - 2 - + - 3 - + - 4 - + -   1 - + - 2 - + - 3 - + - 4 - + -
e|---------------------------------|---------------------------------|
B|---------------------------------|---------------------------------|
G|---------------------------------|-------4-------------------------|
D|-------------------------4---7---|-7-------7---4-----------4---4---|
A|---------------------5h7---------|-----------------5-----7---------|
E|---------------------------------|---------------------------------|

   1 - + - 2 - + - 3 - + - 4 - + -   1 - + - 2 - + - 3 - + - 4 - + -
e|---------------------------------|---------------------------------|
B|---------------------------------|---------------------------------|
G|---------------------------------|-------4-------------------------|
D|-------------------------4---7---|-7-------7---4-----------4---4---|
A|-7---5---7-----------5h7---------|-----------------5-----7---------|
E|---------------------------------|---------------------------------|

   1 - + - 2 - + - 3 - + - 4 - + -   1 - + - 2 - + - 3 - + - 4 - + -
e|---------------------------------|---------------------------------|
B|---------------------------------|---------------------------------|
G|---------------------------------|---------4---4-------4-----------|
D|-------------------------5-------|-5-----------------------7---4---|
A|-7---7---5-----------------------|---------------------------------|
E|---------------------------------|---------------------------------|

   1 - + - 2 - + - 3 - + - 4 - + -   1 - + - 2 - + - 3 - + - 4 - + -
e|---------------------------------|---------------------------------|
B|---------------------------------|---------------------------------|
G|---------------------------------|-------4-------------------------|
D|-------------------------4---7---|-7-------7---4-----------4---4---|
A|-7---5---7-----------5h7---------|-----------------5-----7---------|
E|---------------------------------|---------------------------------|

   1 - + - 2 - + - 3 - + - 4 - + -
e|---------------------------------|
B|---------------------------------|
G|---------------------------------|
D|---------------------------------|
A|-7---7---5-----------------------|
E|---------------------------------|




                                                                         448
Bethoveen - Fur Elyse

    3 +     1 + 2 + 3 +         1 + 2 + 3 +         1 + 2 + 3 +
e|-12-11-|-12-11-12----------|-------------------|-------------------|
B|-------|----------12-15-13-|-------------------|-12-------------12-|
G|-------|-------------------|-14-------------14-|-------------13----|
D|-------|-------------------|-------------14----|----------14-------|
A|-------|-------------------|--0----12-15-------|-------11----------|
E|-------|-------------------|----12-------------|--0-12-------------|

    1 + 2 + 3 +         1 + 2 + 3 +         1 + 2 + 3 +
e|-------------12-11-|-12-11-12----------|-------------------|
B|-13----------------|----------12-15-13-|-------------------|
G|-------------------|-------------------|-14-------------14-|
D|----------14-------|-------------------|-------------14----|
A|--0----12----------|-------------------|--0----12-15-------|
E|----12-------------|-------------------|----12-------------|

    1 + 2 + 3 +         1 + 2 + 3 +         1 + 2 + 3 +
e|-------------------|-------------12-11-|-12-11-12----------|
B|-12----------13-12-|-------------------|----------12-15-13-|
G|-------------------|-14----------------|-------------------|
D|----------14-------|-------------------|-------------------|
A|-------11----------|--0----12----------|-------------------|
E|--0-12-------------|----12-------------|-------------------|

    1 + 2 + 3 +         1 + 2 + 3 +         1 + 2 + 3 +
e|-------------------|-------------------|-------------12-11-|
B|-------------------|-12-------------12-|-13----------------|
G|-14-------------14-|-------------13----|-------------------|
D|-------------14----|----------14-------|----------14-------|
A|--0----12-15-------|-------11----------|--0----12----------|
E|----12-------------|--0-12-------------|----12-------------|

    1 + 2 + 3 +         1 + 2 + 3 +         1 + 2 + 3 +
e|-12-11-12----------|-------------------|-------------------|
B|----------12-15-13-|-------------------|-12----------13-12-|
G|-------------------|-14-------------14-|-------------------|
D|-------------------|-------------14----|----------14-------|
A|-------------------|--0----12-15-------|-------11----------|
E|-------------------|----12-------------|--0-12-------------|

    1 + 2 + 3 +         1 + 2 + 3 +         1 + 2 + 3 +
e|-------------------|-12----------13-12-|-10----------12----|
B|----------12-13-15-|-------------------|----------------15-|
G|-14----------------|----------12-------|----------12-------|
D|-------------------|-------10----------|-------12----------|
A|--0----12----------|----10-------------|-10-14-------------|
E|----12-------------|--8----------------|-------------------|

    1 + 2 + 3 +         1 + 2 + 3 +         1 + 2 + 3 +
e|-------------------|-------------12----|----12-24-------10-|
B|-13----------15-13-|-12----------------|-------------------|
G|-------------------|-------------------|-------------------|
D|----------14-------|-------14-14-------|-------------------|
A|--0----12----------|-------------------|-------------------|
E|----12-------------|--0-12-----------0-|-12-------11-12----|




                                                                         449
    1 + 2 + 3 +         1 + 2 + 3 +         1 + 2 + 3 +
e|-12-------11-12-11-|-12-11-12----------|-------------------|
B|-------------------|----------12-15-13-|-------------------|
G|-------------------|-------------------|-14-------------14-|
D|-------------------|-------------------|-------------14----|
A|-------------------|-------------------|--0----12-15-------|
E|----11-12----------|-------------------|----12-------------|

    1 + 2 + 3 +         1 + 2 + 3 +         1 + 2 + 3 +
e|-------------------|-------------12-11-|-12-11-12----------|
B|-12-------------12-|-13----------------|----------12-15-13-|
G|-------------13----|-------------------|-------------------|
D|----------14-------|----------14-------|-------------------|
A|-------11----------|--0----12----------|-------------------|
E|--0-12-------------|----12-------------|-------------------|

    1 + 2 + 3 +         1 + 2 + 3 +         1 + 2 + 3 +
e|-------------------|-------------------|-------------------|
B|-------------------|-12----------13-12-|-------------------|
G|-14-------------14-|-------------------|-14----------------|
D|-------------14----|----------14-------|-------------------|
A|--0----12-15-------|-------11----------|--0----12----------|
E|----12-------------|--0-12-------------|----12-------------|




                                                                 450
Incomplètes

     Cette section contient les tablatures provenant des fichiers contenus
dans le répertoire « Incomplètes ».




                                                                             451
ACDC - Thunderstruck

Riff 1:
   -    1 - + - 2 - + - 3 - + - 4 - + -   1 - + - 2 - + - 3 - + - 4 - + -
e|---|----------------------------------|----------------------------------|
B|-0h|--4p0h7p0h4p0h7p0h4p0h7p0h4p0h7p0h|-4p0h7p0h4p0h7p0h4p0h7p0h4p0h7p0h-|
G|---|o---------------------------------|----------------------------------|
D|---|o---------------------------------|----------------------------------|
A|---|----------------------------------|----------------------------------|
E|---|----------------------------------|----------------------------------|

   1 - + - 2 - + - 3 - + - 4 - + -   1 - + - 2 - + - 3 - + - 4 - + -
e|---------------------------------|-----------------------------------|
B|-5p0h8p0h5p0h8p0h5p0h8p0h5p0h8p0h|-5p0h8p0h5p0h8p0h5p0h8p0h5p0h8p0h--|
G|---------------------------------|----------------------------------o|
D|---------------------------------|----------------------------------o|
A|---------------------------------|-----------------------------------|
E|---------------------------------|-----------------------------------|


Riff 2:
     1 - + - 2 - + - 3 - + - 4 - + -     1 - + - 2 - + - 3 - + - 4 - + -
e|-------------------------------------|-----------------------------------|
B|--12p0h10p0h9p0h10p0h9p0h7p0h9p0h5p0h|-7p0h4p0h5p0h4p0h5p0h4p0h5p0h4p0h--|
G|o------------------------------------|----------------------------------o|
D|o------------------------------------|----------------------------------o|
A|-------------------------------------|-----------------------------------|
E|-------------------------------------|-----------------------------------|




                                                                               452
Aerosmith - Dream On

   1 + 2 + 3 + 4 +   1 + 2 + 3 + 4 +   1 + 2 + 3 + 4 +   1 + 2 + 3 + 4 +
e|-4---4---3---3---|-4---4---3---3---|-4---4---6---6---|-8---8---8-------|
B|-6---6---4---4---|-3---3---2---2---|-6---6---8---8---|-9---9---9-------|
G|---5---5---5---5-|---5---5---5---5-|---5---5---5---5-|-----------------|
D|-----------------|-----------------|-----------------|---10--10--------|
A|-----------------|-----------------|-----------------|-----------------|
E|-----------------|-----------------|-----------------|-----------------|

   1 + 2 + 3 + 4 +   1 + 2 + 3 + 4 +   1 + 2 + 3 + 4 +   1 + 2 + 3 + 4 +
e|-4---4---3---3---|-4---4---3---3---|-4---4---6---6---|-8---8---6-4---6-|
B|-6---6---4---4---|-3---3---2---2---|-6---6---8---8---|-9---9---8-6---8-|
G|---5---5---5---5-|---5---5---5---5-|---5---5---5---5-|-------------5---|
D|-----------------|-----------------|-----------------|---10--10--------|
A|-----------------|-----------------|-----------------|-----------------|
E|-----------------|-----------------|-----------------|-----------------|

   1 + 2 + 3 + 4 +   1 + 2 + 3 + 4 +   1 - + - 2 - + - 3 - + - 4   -   +    -
e|-8---8---6-4---4-|-3---3---3---3---|------------------------------------------|
B|-9---9---8-6---6-|-2-1-2-1-2-1-2-1-|-----------5h6/8-6h8/9-8h9--/11--9h11p9---|
G|---7---7-----7---|-----------------|-6p5-3-5h6--------------------------------|
D|-----------------|-----------------|------------------------------------------|
A|-----------------|-----------------|------------------------------------------|
E|-----------------|-----------------|------------------------------------------|

   1   -   +   -   2   -   +   -   3   -   +   -   4   -   +   -
e|--------------------------------/8----------------------------------|
B|-8h9p8---6h8p6---4h6p4----------------------------------------------|
G|-------------------------6--p5--------------------------------------|
D|--------------------------------------------------------------------|
A|--------------------------------------------------------------------|
E|--------------------------------------------------------------------|




                                                                                    453
Bee Gee's - Stayin' Alive

   1 - + - 2 - + - 3 - + - 4 - + -   1 - + - 2 - + - 3 - + - 4 - + -
e|---------------------------------|---------------------------------|--1-----
B|---------------------------------|---------------------------------|--3-----
G|---------------------------------|---------------------------------|--3-...-
D|---3---6-------------------------|-------------------------3---6---|--3-----
A|-6-----------6-------3-----3-6---|-------3-6-------3---6-----------|--1-----
E|-------------------------6-------|-6-----------6-------------------|--------




                                                                                 454
Blink 182 - What's my age again

    1 + 2 + 3 + 4 +           1 + 2 + 3 + 4 +
e|--------------------------|--------------------------|
B|--------12----------12----|-------12----------12-----|
G|o----12----12----12----12-|----12----12----12----12-o|
D|o-10----------------------|-------------------------o|
A|--------------10----------|--------------------------|
E|--------------------------|-10----------12-----------|




                                                           455
Bob Sinclair - Love Generation

Quelque chose comme ça qui se répète toute la chanson:

   Db
   1 - + - 2 - + - 3 - + - 4 - + -   1 - + - 2 - + - 3 - + - 4 - + -
e|-4-----x-x---4-------4---4-4-4-4-|-4-----x-x---4-------4---4-4-4-4-|
B|-6-----x-x---6-------6---6-6-6-6-|-6-----x-x---6-------6---6-6-6-6-|
G|-6-----x-x---6-------6---6-6-6-6-|-6-----x-x---6-------6---6-6-6-6-|
D|-6-----x-x---6-------6---6-6-6-6-|-6-----x-x---6-------6---6-6-6-6-|
A|-4-----x-x---4-------4---4-4-4-4-|-4-----x-x---4-------4---4-4-4-4-|
E|---------------------------------|---------------------------------|

   Fm                                Gb
   1 - + - 2 - + - 3 - + - 4 - + -   1 - + - 2 - + - 3 - + - 4 - + -
e|-1-----x-x---1-------1---1-1-1-1-|-2-----x-x---2-------2---2-2-2-2-|
B|-1-----x-x---1-------1---1-1-1-1-|-2-----x-x---2-------2---2-2-2-2-|
G|-1-----x-x---1-------1---1-1-1-1-|-3-----x-x---3-------3---3-3-3-3-|
D|-3-----x-x---3-------3---3-3-3-3-|-4-----x-x---4-------4---4-4-4-4-|
A|-3-----x-x---3-------3---3-3-3-3-|-4-----x-x---4-------4---4-4-4-4-|
E|-1-----------1-------1---1-1-1-1-|-2-----------2-------2---2-2-2-2-|




                                                                         456
C C Music Factory - Gonna Make You Sweat (Everybody Dance Now)

    1 - + - 2 - + - 3 - + - 4 - + -
e|-----------------------------------|
B|-----------------------------------|
G|o---------------------------------o|
D|o-3-----------3-------------------o|
A|--1-----------1-------3-----6------|
E|----------------------1-----4------|




                                                                 457
Chris Isaak - Baby Did A Bad Bad Thing

Shuffle beat

    E
    1   + 2   + 3   + 4   +   1   + 2   + 3   + 4   +
e|-(0)-(0)---(0)---(0)---(0)|----(0-0)-(0)-------------|
B|-(0)-(0)---(0)---(0)---(0)|----(0-0)-(0)-------------|
G|o(1)-(1)---(1)---(1)---(1)|----(1-1)-(1)------------o|
D|o-2---2-----2-----2-----2-|-----2-2---2-------------o|
A|--2---2-----2-----2-----2-|-----2-2---2--------------|
E|--0---0-----0-----0-----0-|-----0-0---0-3-----5------|




                                                           458
Fugees - No woman no cry

Les notes avec des points sont jouées puis "mutées" rapidement

    C               G                 Am              F
    1 - + - 2 - + - 3 - + - 4 - + -   1 - + - 2 - + - 3 - + - 4 - + -
e|----------0-----------3-----------|---------0------------------------|
B|----------1-----------0-----------|---------1------------------------|
G|o---------0-----------0-----------|---------2-----------------------o|
D|o---------2-----------0-----------|---------2---0-2-3---3---2---2---o|
A|--3-----------------------2---3---|-0---------------.-------.--------|
E|--------------0-1-3---------------|----------------------------------|




                                                                           459
Green Day - Longview

  4   +    1   + 2   + 3   + 4   +   1   + 2   + 3   + 4   +
e-------|--------------------------|-------------------------|
B-------|--------------------------|-------------------------|
G-------|o-------------------------|-------------------------|
D-------|o-------9-----7-----6-----|-------7-----6-----------|
A-------|--7---------------------7-|-5-----------------5---9-|
E-----7-|--------------------------|-------------------------|

   1   + 2   + 3   + 4   +   1   + 2   + 3   + 4   +
e|-------------------------|--------------------------|
B|-------------------------|--------------------------|
G|-------------------------|-9-----7-----6-----7-----o|
D|-------9-----6-----5-----|-0-----0-----------0-----o|
A|-7-----------------------|-------------4------------|
E|-------------------------|--------------------------|




                                                                 460
Guess Who - American Woman

    E
    1 - + - 2 - + - 3 - + - 4 - + -
e|-----------------------------------|
B|--9-9-9-9-9---9-9---9-9------------|
G|o-9-9-9-9-9---9-9---9-9-----------o|
D|o-9-9-9-9-9---9-9---9-9-----------o|
A|--7-7-7-7-7---7-7---7-7------------|
E|--------------------------7---10---|




                                         461
Jean Leloup - Faire des enfants

Riff 1:
   Dm
   1 - + - 2 - + - 3 - + - 4 - + -   1 - + - 2 - + - 3 - + - 4 - + -
e|---------------------------------|-------------------------------------|
B|---------------------------------|-------------------------------------|
G|---------------------------------|-------------------------------10----|
D|-------------------------10------|-------------------------10h12-------|
A|-----------------12--12----------|-----------------12--12--------------|
E|-10--10--x---10------------------|-10--10--x---10----------------------|


   1 - + - 2 - + - 3 - + - 4 - + -   1 - + - 2 - + - 3 - + - 4 - + -
e|---------------------------------|---------------------------------|
B|---------------------------------|---------------------------------|
G|---------------------------------|---------------------------------|
D|-------------------------10------|---------------------------------|
A|-----------------12--12----------|-----------------12--10--8---10--|
E|-10--10--x---10------------------|-10--10--x---10------------------|



Riff 2:
   Gm
   1 - + - 2 - + - 3 - + - 4 - + -   1 - + - 2 - + - 3 - + - 4 - + -
e|---------------------------------|---------------------------------|
B|---------------------------------|---------------------------------|
G|---------------------------------|-----------------------------3---|
D|-------------------------3-------|-------------------------3h5-----|
A|-----------------5---5-----------|-----------------5---5-----------|
E|-3---3---x---3-------------------|-3---3---x---3-------------------|


   1 - + - 2 - + - 3 - + - 4 - + -   1 - + - 2 - + - 3 - + - 4 - + -
e|---------------------------------|---------------------------------|
B|---------------------------------|---------------------------------|
G|---------------------------------|---------------------------------|
D|-------------------------3-------|---------------------------------|
A|-----------------5---5-----------|-----------------5---3---1---3---|
E|-3---3---x---3-------------------|-3---3---x---3-------------------|



Riff 3:
   Am
   1 - + - 2 - + - 3 - + - 4 - + -   1 - + - 2 - + - 3 - + - 4 - + -
e|---------------------------------|---------------------------------|
B|---------------------------------|---------------------------------|
G|---------------------------------|-----------------------------5---|
D|-------------------------5-------|-------------------------5h7-----|
A|-----------------7---7-----------|-----------------7---7-----------|
E|-5---5---x---5-------------------|-5---5---x---5-------------------|




                                                                             462
   1 - + - 2 - + - 3 - + - 4 - + -   1 - + - 2 - + - 3 - + - 4 - + -
e|---------------------------------|---------------------------------|
B|---------------------------------|---------------------------------|
G|---------------------------------|---------------------------------|
D|-------------------------5-------|---------------------------------|
A|-----------------7---7-----------|-----------------7---5---3---5---|
E|-5---5---x---5-------------------|-5---5---x---5-------------------|

   Gm
   1 - + - 2 - + - 3 - + - 4 - + -   1 - + - 2 - + - 3 - + - 4 - + -
e|---------------------------------|---------------------------------|
B|---------------------------------|---------------------------------|
G|---------------------------------|-----------------------------3---|
D|-------------------------3-------|-------------------------3h5-----|
A|-----------------5---5-----------|-----------------5---5-----------|
E|-3---3---x---3-------------------|-3---3---x---3-------------------|


   1 - + - 2 - + - 3 - + - 4 - + -   1 - + - 2 - + - 3 - + - 4 - + -
e|---------------------------------|---------------------------------|
B|---------------------------------|---------------------------------|
G|---------------------------------|---------------------------------|
D|-------------------------3-------|-3h5-5---------------------------|
A|-----------------5---5-----------|---------3h5-5-------------------|
E|-3---3---x---3-------------------|-----------------3h5-5---1h3-3---|



Riff 4:
    1 - + - 2 - + - 3 - + - 4 - + -
e|---------------------------------------------------|
B|--------------12----------------------12-----------|
G|o-------10----12-10----10-------10----12-10----10-o|
D|o-10h12----12-------12----10h12----12-------12----o|
A|---------------------------------------------------|
E|---------------------------------------------------|




                                                                         463
Jean Leloup - Johnny Go

   1 - + - 2 - + - 3 - + - 4 - + -   1 - + - 2 - + - 3 - + - 4 - + -
e|---------------------------------|---------------------------------|
B|---------------------------------|---------------------------------|
G|---0---0-------------------------|---------------------------------|
D|/5---5---5---3--h5---3-----------|---0---0-------------------------|
A|-------------------------5---3---|/5---5---5---3--h5---3-----------|
E|---------------------------------|-------------------------6---3---|




                                                                         464
Jean Leloup - La Drop Sociale

C'est la même chose pendant pas mal toute la chanson, avec à peine quelques
modications.

La basse fait quelque chose du genre:

   F#m       A
   1   +   2   +   3   +   4   +      1   +   2   +   3   +   4   +
G|----------------------------------|----------------------------------|
D|o---------------------------------|-----------------2-----2---------o|
A|o-------------------------------2-|---------------------------------o|
E|--2---2---2-----2-5---5---5---5---|-0---0---0---0-----0-----0-----0--|

Guitare 1: F#m // A // E ////

   F#m A E
e|--2--5-0-|
B|--2--5-0-| C'est la manière que je les joue
G|--2--6-1-|
D|--4--7-2-|
A|--4--7-2-|
E|--2--5-0-|

Guitare 2: En général, ça alterne entre trois patrons:

Patron 1:
  F#m              A                E
   1   +   2   +   3   +   4   +      1  +   2   +   3   +   4   +
e|-----2-------2-------5-------5---|---------------------------------|
B|-----2-------2-------5-------5---|---------------555-5-5-5-5-3-5---|
G|-----2-------2-------6-------6---|---------------------------------|
D|---------------------------------|---------------------------------|
A|---------------------------------|---------------------------------|
E|---------------------------------|---------------------------------|

Patron 2:
  F#m              A                E
   1   +   2   +   3   +   4   +      1   +   2   +   3   +   4   +
e|-----2-------2-------5-------5---|-----7-------7-------7-------7---|
B|-----2-------2-------5-------5---|-----9-------9-------9-------9---|
G|-----2-------2-------6-------6---|-----9-------9-------9-------9---|
D|---------------------------------|---------------------------------|
A|---------------------------------|---------------------------------|
E|---------------------------------|---------------------------------|
                                      ^_____________________________^
                                        Le rythme peut changer ici

Patron 3:
  F#m              A                E
   1   +   2   +   3   +   4   +      1  +   2   +   3   +    4   +
e|-----2-------2-------5-------5---|---------7--7--7-7--12-12-12-----|
B|-----2-------2-------5-------5---|---------9--9--9-9--9--9--9------|
G|-----2-------2-------6-------6---|---------9--9--9-9--9--9--9------|
D|---------------------------------|---------^_____^-^______^--------|
A|---------------------------------|------------3--------3-----------|
E|---------------------------------|---------------------------------|




                                                                              465
Joan Jett - I love rock'n'roll

*** This is not how it is played on the real song ***


The xxxxxx means hit the strings with your right hand to get a percussive sound

   E5                                A5              B5
   1 - + - 2 - + - 3 - + - 4 - + -   1 - + - 2 - + - 3 - + - 4 - + -
e|---------x---------------x-------|---------x---------------x-------|
B|---------x---------------x-------|---------x---------------x-------|
G|---------x---------------x-------|-2---2---x-------4---4---x-------|
D|-2---2---x-------2---2---x-------|-2---2---x-------4---4---x-------|
A|-2---2---x-------2---2---x-------|-0---0---x-------2---2---x-------|
E|-0---0---x-------0---0---x-3^----|---------x---------------x-3^----|

   E5                                A5              B5
   1 - + - 2 - + - 3 - + - 4 - + -   1 - + - 2 - + - 3 - + -
e|---------x---------------x-------|---------x---------------|
B|---------x---------------x-------|---------x---------------|
G|---------x---------------x-------|-2---2---x-------4-------|
D|-2---2---x-------2---2---x-------|-2---2---x-------4-------|
A|-2---2---x-------2---2---x-------|-0---0---x-------2-------|
E|-0---0---x-------0---0---x-3^----|---------x-----------3^--|

   E5
   1 - + - 2 - + - 3 - + - 4 - + -   1 - + - 2 - + - 3 - + - 4 - + -
e|---------x-----------------------|---------x-----------------------|
B|---------x-----------------------|---------x-------5-3-------------|
G|---------x-----------------------|---------x-----------4---2-------|
D|-2---2---x-----------------------|-2---2---x-----------------5-----|
A|-2---2---x-----------------------|-2---2---x-----------------------|
E|-0---0---x-----------------------|-0---0---x-----------------------|

   E5
   1 - + - 2 - + - 3 - + - 4 - + -   1 - + - 2 - + - 3 - + - 4 - + -
e|---------x-----------------------|---------x-----------------------|
B|---------x-----------------------|---------x-------5-3-------------|
G|---------x-----------------------|---------x-----------4---2-------|
D|-2---2---x-----------------------|-2---2---x-----------------5-----|
A|-2---2---x-----------------------|-2---2---x-----------------------|
E|-0---0---x-----------------------|-0---0---x-----------------------|

   E5                                B5
   1 - + - 2 - + - 3 - + - 4 - + -   1 - + - 2 - + - 3 - + - 4 - + -
e|---------x-----------------------|---------x-----------------------|
B|---------x-----------------------|---------x-------5-3-------------|
G|---------x-----------------------|-4---4---x-----------4---2-------|
D|-2---2---x-----------------------|-4---4---x-----------------5-----|
A|-2---2---x-----------------------|-2---2---x-----------------------|
E|-0---0---x-----------------------|---------x-----------------------|

   A5              B5                E5              A5
   1 - + - 2 - + - 3 - + - 4 - + -   1 - + - 2 - + - 3 - + - 4 - + -
e|---------x---------------x-------|---------x-----------------------|
B|---------x---------------x-------|---------x-----------------------|
G|-2---2---x-------4---4---x-------|-4---4---x-------2---------------|
D|-2---2---x-------4---4---x-------|-2---2---x-------2------...------|
A|-0---0---x-------2---2---x-------|---------x-------0---------------|
E|---------x---------------x-------|---------x-----------------------|

                                                                                  466
Led Zeppelin - Babe I'm Gonna Leave You

Partie 1:
   Am               C/G               D/F#               F       E
   1 + 2 + 3 + 4 +   1 + 2 + 3 + 4 +   1 + 2 + 3 + 4 +   1 + 2 + 3 + 4 +
e|-------0---------|-----------------|-----------------|-----------------|
B|---------------1-|-------3-------1-|-------3-------1-|-------1-------0-|
G|-----2-------2---|-----0-------0---|-----2-------2---|-----2-------1---|
D|---2-------2-----|---2-------2-----|---0-------0-----|---3-------2-----|
A|-0-------0-------|-----------------|-----------------|-----------------|
E|-----------------|-3-------3-------|-2-------2-------|-1-------0-------|

   Am               C/G               D/F#               F       E
   1 + 2 + 3 + 4 +   1 + 2 + 3 + 4 +   1 + 2 + 3 + 4 +   1 + 2 + 3 + 4 +
e|-------3-------0-|-------3-------0-|-----------------|-----------------|
B|-----------------|-----------------|-------3-------1-|-------1-------0-|
G|-----2-------2---|-----0-------0---|-----2-------2---|-----2-------1---|
D|---2-------2-----|---2-------2-----|---0-------0-----|---3-------2-----|
A|-0-------0-------|-----------------|-----------------|-----------------|
E|-----------------|-3-------3-------|-2-------2-------|-1-------0-------|

   Am               C/G               D/F#               F       E
   1 + 2 + 3 + 4 +   1 + 2 + 3 + 4 +   1 + 2 + 3 + 4 +   1 + 2 + 3 + 4 +
e|-------3-------0-|-----------------|-----------------|-----------------|
B|-----------------|-------3-------0-|-------3-------1-|-------1-------0-|
G|-----2-------2---|-----0-------0---|-----2-------2---|-----2-------1---|
D|---2-------2-----|---2-------2-----|---0-------0-----|---3-------2-----|
A|-0-------0-------|-----------------|-----------------|-----------------|
E|-----------------|-3-------3-------|-2-------2-------|-1-------0-------|

   Am               C/G               D/F#               F       E
   1 + 2 + 3 + 4 +   1 + 2 + 3 + 4 +   1 + 2 + 3 + 4 +   1 + 2 + 3 + 4 +
e|-------3-------0-|-----------------|-----------------|-----------------|
B|-----------------|-------3-------0-|-------3-------1-|-------1-------0-|
G|-----2-------2---|-----0-------0---|-----2-------2---|-----2-------1---|
D|---2-------2-----|---2-------2-----|---0-------0-----|---3-------2-----|
A|-0-------0-------|-----------------|-----------------|-----------------|
E|-----------------|-3-------3-------|-2-------2-------|-1-------0-------|


Partie 2:
    1 - + - 2 - + - 3 - + - 4 - + -   1 - + - 2 - + - 3 - + - 4 - + -
E|--0-----0-0---0-------0-------0---|-----0---0---0---0---0---0---0-0--|
B|--1-----1-1---1-------8-------6---|-----6---6---6---6---6---6---6-6--|
G|o-2-----2-2---2-------9-------7---|-----7---7---7---7---7---7---7-7-o|
D|o-2-----2-2---2-------7-------7---|-----7---7---7---7---7---7---7-7-o|
A|--0-----0-0---0-------0-------0---|-----0---0---0---0---0---0---0-0--|
E|----------------------------------|----------------------------------|


Partie 3:
   F                 E                 F                 E
   1 + 2 + 3 + 4 +   1 + 2 + 3 + 4 +   1 + 2 + 3 + 4 +   1 + 2 + 3 + 4 +
E|-----------------|-----------------|-----------------|-----------------|
B|-------3-------1-|-------3-------0-|-------3-------1-|-------3-------0-|
G|-----2-------2---|-----1-------1---|-----2-------2---|-----1-------1---|
D|---3-------3-----|---2-------2-----|---3-------3-----|---2-------2-----|
A|-----------------|-----------------|-----------------|-----------------|
E|-1-------1-------|-0-------0-------|-1-------1-------|-0-------0-------|


                                                                             467
Partie 4:
    1 + 2 + 3 + 4 +   1 + 2 + 3 + 4 +
E|------------------|------------------|
B|--------5-------8-|-------8-------6--|
G|o-----4-------9---|-----7-------7---o|
D|o---2-------9-----|---7-------7-----o|
A|--0-------0-------|-0-------0--------|
E|------------------|------------------|


Partie 5:
    Am               C/G               D/F#               F       E
    1 + 2 + 3 + 4 +   1 + 2 + 3 + 4 +   1 + 2 + 3 + 4 +   1 + 2 + 3 + 4 +
E|--0-0-0-0-0---0---|-0-0-0-0-0---0---|-0-0-0-0-0---0---|-1-1-1-1-0---0----|
B|--1-1-1-1-1---1---|-1-1-1-1-1---1---|-1-1-1-1-1---1---|-1-1-1-1-0---0----|
G|o-2-2-2-2-2---2---|-0-0-0-0-0---0---|-2-2-2-2-2---2---|-2-2-2-2-1---1---o|
D|o-2-2-2-2-2---2---|-2-2-2-2-2---2---|-0-0-0-0-0---0---|-3-3-3-3-2---2---o|
A|--0-0-0-0-0---0---|-x-x-x-x-x---x---|-x-x-x-x-x---x---|-3-3-3-3-2---2----|
E|------------------|-3-3-3-3-3---3---|-2-2-2-2-2---2---|-1-1-1-1-0---0----|




                                                                               468
Led Zeppelin - Black Dog

^: bend d'un quart de ton

Riff 1:
   4 - + -   1 - + - 2 - + - 3   - + - 4 - + -   1 - + - 2 - + - 3 - + - 4 - + -
e|---------|-----------------------------------|---------------------------------|
B|---------|-----------------------------------|---------------------------------|
G|---------|-----5^------7-9-5h7p5-----5^------|---------------2-----2-----------|
D|-----5-6-|-7-------7-------------7-7-----7---|-5-7-7---------2-----2-----------|
A|---7-----|---7-------------------------------|-------5-7-3-5-0-----0-----------|
E|---------|-----------------------------------|---------------------------------|


Riff 2:
   4 - + -   1 - + - 2 - + - 3 - + - 4 - + -   1 - + - 2 - + - 3 - + - 4 - + -
e|---------|---------------------------------|----------------------------------|
B|---------|---------------------------------|----------------------------------|
G|---------|---------------------------------|----------------------------------|
D|---------|-----5^----------------5^--------|---------5^-----------------------|
A|-----5-6-|-7-------7-----5-6-7-------7-----|-5-6-7-------7-----5-6-7-5-riff 1-|
E|---7-----|---7---------7-------7---------7-|-------7---------7----------------|




                                                                                     469
Led Zeppelin - Heartbreaker

  4 - + -    1 - + - 2 - + - 3 - + - 4 - + -   1 - + - 2 - + - 3 - + - 4 - + -
e---------|----------------------------------|----------------------------------|
B---------|----------------------------------|----------------------------------|
G---------|o---------------------------------|---------------------------------o|
D---------|o-----------------0-----1-2-------|-----------------0-----1-2-------o|
A---------|--0-------3-----------------------|-0-0-0-0-3------------------------|
E-3-------|----------------------------3-----|---------------------------3------|

    1 - + - 2 - + - 3 - + - 4 - + -   1 - + - 2 - + - 3 - + - 4 - + -
e|----------------------------------|----------------------------------|
B|----------------------------------|----------------------------------|
G|o---------------------------------|---------------------------------o|
D|o---------0-------2-----3-4-------|---------0-------2-----3-4-------o|
A|--2-------------------------0-----|-2-2-2-2-------------------2------|
E|----------------------------------|----------------------------------|




                                                                                    470
Led Zeppelin - Whole Lotta Love

Riff principal:
   3 - + - 4 - + -            1 - + - 2 - + - 3 - + - 4 - + -
e|-------------------------|---------------------------------------------------|
B|-------------------------|---------------------------------------------------|
G|-------------------------|o-9-----9--9--9-----9--9--9-----------------------o|
D|-------------------------|o-9-----9--9--9-----9--9--9-----------------------o|
A|-------------------------|--7-----7--7--7-----7--7--7------------------------|
E|-------7--10----7--10----|--0-----0--0--0-----0--0--0-----7--10----7--10-----|




                                                                                   471
Lenny Kravitz - Always On The Run

Une guitare fait:

    1 - + - 2 - + - 3 - + - 4 - + -   1 - + - 2 - + - 3 - + - 4 - + -
e|----------------------------------|----------------------------------|
B|----------------------------------|----------------------------------|
G|o---------------------------------|---------------------------------o|
D|o-----2---0-----0-x-x-5p0---2--(2)|-----2---0-----0---0---------0h2-o|
A|------------4---------------------|-----------4---------4p0----------|
E|--0-------------------------------|-0-----------------------3p0------|


Pendans que l'autre fait:

    1 - + - 2 - + - 3 - + - 4 - + -   1 - + - 2 - + - 3 - + - 4 - + -
e|----------------------------------|-----------------------x--x--11/12-12-12--|
B|----------------------------------|-----------------------x--x--11/12-12-12--|
G|o---------------------------------|-----------------------x--x--11/12-12-12-o|
D|o-----5---7-----------x-5---------|-----5---7-------------------------------o|
A|--------------5---7-----------5h7-|-------------5---7------------------------|
E|----------------------------------|------------------------------------------|




                                                                                   472
Marilyn Manson - Sweet Dreams

    1 + 2 + 3 + 4 +   1 + 2 + 3 + 4 +
e|------------------|------------------|
B|------------------|------------------|
G|o-----------------|-----------------o|
D|o-----5---6---5---|-----------------o|
A|--3-3---3---3---3-|-----6/8-----5/6--|
E|------------------|-4-4-----3-3------|




                                           473
Mase - What You Want

Intro:
   1 - + - 2 - + - 3 - + - 4 - + -   1 - + - 2 - + - 3 - + - 4 - + -
e|---------------------------------|-----x-x-----x-------x-x-x-x-x-x-|
B|---------------------------------|-----x-x-----x-------x-x-x-x-x-x-|
G|---------------------------------|-----x-x-----x-------x-x-x-x-x-x-|
D|---------------------------------|-----x-x-----x-------x-x-x-x-x-x-|
A|---------------------------------|-----x-x-----x-------x-x-x-x-x-x-|
E|---------------------------------|-----x-x-----x-------x-x-x-x-x-x-|

    Fm
    1 - + - 2 - + - 3 - + - 4 - + -   1 - + - 2 - + - 3 - + - 4 - + -
e|----------1-----1-----1-----1-----|---------1-----1-----1-----1-----|
B|----------1-----1-----1-----1-----|---------1-----1-----1-----1-----|
G|o---------1-----1-----1-----1-----|---------1-----1-----1-----1-----|
D|o---------3-----3-----3-----3-----|---------3-----3-----3-----3-----|
A|----------3-----3-----3-----3-----|---------3-----3-----3-----3-----|
E|--1-------1-----1-----1-----1-----|-1-------1-----1-----1-----1-----|

   Bbm
   1 - + - 2 - + - 3 - + - 4 - + -   1 - + - 2 - + - 3 - + - 4 - + -
e|---------1-----1-----1-----1-----|---------1-----1-----1-----1------|
B|---------2-----2-----2-----2-----|---------2-----2-----2-----2------|
G|---------3-----3-----3-----3-----|---------3-----3-----3-----3-----o|
D|---------3-----3-----3-----3-----|---------3-----3-----3-----3-----o|
A|-1-------1-----1-----1-----1-----|-1-------1-----1-----1-----1------|
E|---------------------------------|----------------------------------|




                                                                          474
Metallica - To Live Is To Die

   Am                                    G
   1     +     2     +     3     +       1     +     2     +     3     +
e|--------------------------------------|-------------------------------------|
B|--0--h--1-----------------0h1p1-------|-0-----------------------------------|
G|o-------------2-----------------2-----|-------------2-----------0-----------|
D|o-------------------2-----------------|-------------------------------------|
A|--0-----------------------------------|-------------------------------------|
E|--------------------------------------|-3-----------------3-----------3-----|

   Em                                    F
   1     +     2     +     3     +       1     +     2     +     3     +
e|-------------------------------------|-------------------------------------|
B|-------------------------------------|-------------------------------------|
G|-0-----------------------0-----------|-0--h--2-----------------------------|
D|-------------2-----------------------|-------------0-----------------------|
A|-------------------2-----------------|-------------------------0-----------|
E|-0-----------------------------0-----|-1-----------------------------------|

   Am                                    G
   1     +     2     +     3     +       1     +     2     +     3     +
e|-------------------------------------|-------------------------------------|
B|-1-----------------------3-----------|-3-----------------0-----------------|
G|-------------2-----------------------|-------------------------0-----------|
D|-------------------2-----------------|-------------------------------------|
A|-0-----------------------------------|-------------------------------------|
E|-------------------------------0-----|-3-----------3-----------------0-----|

   Em                                    G
   1     +     2     +     3     +       1     +     2     +     3     +
e|-------------------------------------|--------------------------------------|
B|-------------------------------0-----|(0)----------------------3------------|
G|-0-----------------------0-----------|-0-----------------------------------o|
D|-------------2-----------------------|-------------0-----------------------o|
A|-------------------2-----------2-----|-------------------2-----------0------|
E|-0-----------------------------------|-3------------------------------------|




                                                                                  475
Niagara - J'ai vu

Riff de l'intro et du refrain

    1 - + - 2 - + - 3 - + - 4 - + -   1 - + - 2 - + - 3 - + - 4 - + -
e|----------------------------------|----------------------------------|
B|----------------------------------|----------------------------------|
G|o---------------------------------|---------------------------------o|
D|o---------------------------------|---------------------------------o|
A|----------5-----7---------5-------|---------5-----7---5--------------|
E|--0-5-6-7-----7-----5-6-7-----7---|-0-5-6-7-----7-------7-6-5-3------|




                                                                           476
Nirvana - Come As You Are

                      F#m               E
   1 + 2 + 3 + 4 +    1 + 2 + 3 + 4 +   1 + 2 + 3 + 4 +
e|-----------------|------------------|------------------|
B|-----------------|------------------|------------------|
G|-----------------|o-----------------|-----------------o|
D|-----------------|o-----------------|-----------------o|
A|-----------------|------0---0-------|---2-------2------|
E|-----------0-0-1-|--2-----2---2-2-1-|-0---0-0-----0-1--|




                                                             477
Nirvana - Lithium

    E       G#m       C#m     A         C5      D5        B5      D5
    1 + 2 + 3 + 4 +   1 + 2 + 3 + 4 +   1 + 2 + 3 + 4 +   1 + 2 + 3 + 4 +
e|------x-------x---|-----x-------x---|-----------------|------------------|
B|------x-------x---|-----x-------x---|-----------------|------------------|
G|o-----x-------x---|---6-x-------x---|-----------------|-----------------o|
D|o-----x-------x---|---6-x-------x---|-5---5-5-7-7-7---|-4---4-4-7-7-7-7-o|
A|------x-----6-x---|-4---x-----7-x-0-|-3---3-3-5-5-5-0-|-2---2-2-5-5-5-5--|
E|--0---x-0-4---x-0-|-----x-0-5---x---|-----------------|------------------|




                                                                               478
Offspring - The Kids Aren't Allright

   Bbm                               Gb
   1 - + - 2 - + - 3 - + - 4 - + -   1 - + - 2 - + - 3 - + - 4 - + -
e|---------------------------------|---------------------------------|
B|---------------------------------|---------------------------------|
G|-----6---6-----5---5-5-5-5h6-----|-----6---6-----5---5-5-5-5h6-----|
D|-8-8-8-8-8-8-8-8-8-8-8-8-8---8-8-|-4-4-4-4-4-4-4-4-4-4-4-4-4---4-4-|
A|---------------------------------|---------------------------------|
E|---------------------------------|---------------------------------|

   Db                                Ab
   1 - + - 2 - + - 3 - + - 4 - + -   1 - + - 2 - + - 3 - + - 4 - + -
e|---------------------------------|---------------------------------|
B|---------------------------------|---------------------------------|
G|-----6---6-----5---5-5-5-5h6-6-6-|-6h8-8-8-6---6-5---5-5-5-5h6-----|
D|-6-6-6-6-6-6-6-6-6-6-6-6-6---6-6-|-6---6-6-6---6-6---6-6-6-6-------|
A|---------------------------------|---------------------------------|
E|---------------------------------|---------------------------------|




                                                                         479
Radiohead - Talk Show Host

    1 + 2 + 3 + 4 +   1 + 2 + 3 + 4 +
e|------------------|------------------|
B|------8-8---8---8-|------------------|
G|o-----8-8---7---5-|-----------------o|
D|o-----------------|-----------------o|
A|------------------|------------------|
E|------------------|-------------6-8--|




                                           480
Respectables - Homme 7-Up

    1 - + - 2 - + - 3 - + - 4 - + -
e|-----------------------------------|
B|------3---3---3---1---0-------3-1--|
G|o-------------------------2h4-----o|
D|o-0-----0---0---0-----------------o|
A|-----------------------------------|
E|-----------------------------------|




                                         481
Respectables - L'Argent Fait Le Bonheur

                                /--- une notre ou l'autre, pas les deux
Riff 1:                         |
    G                           |     C
    1 - + - 2 - + - 3 - + - 4 - + -   1 - + - 2 - + - 3 - + - 4 - + -
e|----------------------------------|----------------------------------|
B|----------------------------------|----------------------------------|
G|o-----------------------------2-4-|---------------------------------o|
D|o-------5-------------------4-7---|-------5-------------------------o|
A|------5-------5---3-----3-5-------|-----5-------5---3-----3-3-3-2----|
E|--3---------3---------------------|-3---------3-------------------5--|




                                                                           482
Santana - Put Your Lights Out

    Am                                C
    1 - + - 2 - + - 3 - + - 4 - + -   1 - + - 2 - + - 3 - + - 4 - + -
e|--0-------0---x-0---0-------------|-0-------0-0-0-0---0---0----------|
B|--1-------1---x-0---1-----1-1-1-1-|-1-------3-3-3-3---1---0---0-0-0--|
G|o-2-------2---x-2---2-----2-2-2-2-|-0-------0-0-0-0---0---0---0-0-0--|
D|o-2-------2---x-2---2-----2-2-2-2-|-2-------2-3-2-2---2---2---2-2-2--|
A|--0-------0---x-0---0-------------|-3-------3-3-3-3---3---3----------|
E|----------------------------------|----------------------------------|

    G                                 F               E
    1 - + - 2 - + - 3 - + - 4 - + -   1 - + - 2 - + - 3 - + - 4 - + -
e|--3-------3-3-3-3---0-------------|-1---1-1---x-0---------0-0--------|
B|--0-------0-0-0-0---0-------0-0-0-|-1---1-1---x-0---------0-0---0----|
G|--0-------0-0-0-0---0-------0-0-0-|-2---2-2---x-1---------1-1---0---o|
D|--0-------0-0-0-0---0-------0-0-0-|-3---3-3---x-2---------2-2---0---o|
A|--2-------2-2-2-2---2-------------|-3---3-3---x-2---------2-2--------|
E|--3-------3-3-3-3---3-------------|-1---1-1---x-0---------0-0--------|




                                                                           483
The Cure - Lullaby

Riff 1:
    Dbm
    1 - + - 2 - + - 3 - + - 4 - + -   1 - + - 2 - + - 3 - + - 4 - + -
e|----------4---------------4-------|---------4---------------4-------|
B|---------(0)-------------(0)------|--------(0)-------------(0)------|
G|o---------4---------------4-------|---------4-----4---4-----4-------|
D|o---------------------2-----------|---------------------2-----------|
A|--4-----------4---4---------------|-4-----------4---4---------------|
E|----------------------------------|---------------------------------|

   A
   1 - + - 2 - + - 3 - + - 4 - + -   1 - + - 2 - + - 3 - + - 4 - + -
e|---------0---------------0-------|---------0---------------0--------|
B|--------(0)-------------(0)------|--------(0)-------------(0)-------|
G|---------4-----4---4-----4-------|---------4-----4---4-----4-------o|
D|---------------------------------|-------------2---2---2-----------o|
A|-0-----------0---0---0-----------|-0--------------------------------|
E|---------------------------------|----------------------------------|


Riff 2:
    Dbm                                 A
    1 + 2 + 3 + 4 +   1 + 2 + 3 + 4 +   1 + 2 + 3 + 4 +   1 + 2 + 3 + 4 +
e|------------------|-----------------|-----4-----------|-----4------------|
B|------------------|-------------5-5-|-7-7-----------5-|-7-7--------------|
G|o-------4-6-6-4-6-|-------4-6-6-----|-------6---------|-------6---6-4---o|
D|o-----------------|-----------------|-----------------|-----------------o|
A|------------------|-----------------|-----------------|------------------|
E|------------------|-----------------|-----------------|------------------|


Riff 3:
   Dbm
   1 - + - 2 - + - 3 - + - 4 - + -     1 - + - 2 - + - 3 - + - 4 - + -
e|-----------------------------------|---------------------------------|
B|-9h10p9---9---9h10p9---9-----------|-----9-10-12--10--10--9----------|
G|--------11-----------11------------|--------------------------11--11-|
D|-----------------------------------|---------------------------------|
A|-----------------------------------|---------------------------------|
E|-----------------------------------|---------------------------------|

   A
   1 - + - 2 - + - 3 - + - 4 - + -   1 - + - 2 - + - 3 - + - 4 - + -
e|---------------------------------|---------------------------------|
B|-9-------------------------------|---------------------------------|
G|-----9---------------------------|---------------------------------|
D|---------------------------------|---------------------------------|
A|---------------------------------|---------------------------------|
E|---------------------------------|---------------------------------|




                                                                               484
Riff 4:
   Dbm
   1 - + - 2 - + - 3 - + - 4 - + -   1 - + - 2 - + - 3 - + - 4 - + -
e|---------------------------------|---------------------------------|
B|-12--------------9---------------|-----9-10-12--10--10--9----------|
G|---------------------------------|--------------------------11--11-|
D|---------------------------------|---------------------------------|
A|---------------------------------|---------------------------------|
E|---------------------------------|---------------------------------|

   A
   1 - + - 2 - + - 3 - + - 4 - + -   1 - + - 2 - + - 3 - + - 4 - + -
e|---------------------------------|---------------------------------|
B|-9-------------------------------|---------------------------------|
G|-----9---------------------------|---------------------------------|
D|---------------------------------|---------------------------------|
A|---------------------------------|---------------------------------|
E|---------------------------------|---------------------------------|




                                                                         485
Toto - Hold The Line

Intro:
    1 - - + - - 2 - - + - - 3 - - + - - 4 - - + - -
e|--5-5-5-5-5-5-5-5-5-5-5-5-4-4-4-4-4-4-5-5-5-4-4-4--|
B|--7-7-7-7-7-7-5-5-3-3-3-3-5-5-5-5-5-5-5-5-5-5-5-5--|
G|o-6-6-6-6-6-6-6-6-4-4-4-4-4-4-4-4-4-4-4-4-4-4-4-4-o|
D|o-------------------------------------------------o|
A|---------------------------------------------------|
E|---------------------------------------------------|


Verse:
    1 + 2 + 3 - - + - - 4 - - + - -   1 + 2 + 3 + 4 +
e|----------------------------------|------------------|
B|----------------------------------|------------------|
G|o-6-------------------------------|-----------------o|
D|o-4-------6-------7-------7-------|-9---------------o|
A|----------4-------5-------5-------|-7----------------|
E|----------------------------------|------------------|


Riff du couplet:
   1 + 2 + 3 - - + - - 4 - - + - -   1 + 2 + 3 - - + - - 4 - - + - -
e|---------------------------------|---------------------------------|
B|---------------------------------|---------------------------------|
G|-6-------------------------------|---------------------------------|
D|-4-------6-------7-------7-------|-9-------------------------------|
A|---------4-------5-------5-------|-7-------7-------4-------3-------|
E|---------------------------------|---------------------------------|

   1   + 2   + 3   + 4   +   1   + 2   + 3 - - + - - 4 - - + - -
e|-------------------------|-------------------------------------|
B|-------------------------|-------------------------------------|
G|-------------------------|-------------------------------------|
D|-----------------------2-|-4---------2-4-----------------------|
A|-2-------0-2-4-------4---|---------4-----------4-------3-------|
E|-------------------------|-------------------------------------|

   1   + 2   + 3   + 4   +   1   + 2   + 3 - - + - - 4 - - + - -
e|-------------------------|-------------------------------------|
B|-------------------------|-------------------------------------|
G|-------------------------|-------------------------------------|
D|-----------------------2-|-4---------2-4-----------------------|
A|-2-------0-2-4-------4---|---------4-----------4-------3-------|
E|-------------------------|-------------------------------------|

  1   + 2   + 3   + 4   +    1   + 2   + 3 - - + - - 4 - - + - -
e|-------------------------|-------------------------------------|
B|-------------------------|-------------------------------------|
G|-------------------------|-------------------------------------|
D|-------------------------|-------------------------------------|
A|-2-------0-2-4-------4-4-|-5-------5-5-7-------4-------3-------|
E|-------------------------|-------------------------------------|




                                                                         486
  1   + 2   + 3   + 4   +    1   + 2   + 3 - - + - - 4 - - + - -
e|-------------------------|-------------------------------------|
B|-------------------------|-------------------------------------|
G|-------------------------|-------------------------------------|
D|-------------------------|-------------------------------------|
A|-2-------0-2-4-------4-4-|-5-------5-5-7-------4-------3-------|
E|-------------------------|-------------------------------------|

   1   + 2   + 3   + 4   +   1   + 2   + 3   + 4   +
e|-------------------------|-------------------------|
B|-------------------------|-------------------------|
G|-------------------------|-------------------------|
D|-------------------------|-------------------------|
A|-2-------0-2-4-------4-4-|-5-------5-5-7-----------|
E|-------------------------|-------------------------|




It's   not   in   the   way   that you hold me
It's   not   in   the   way   you say you care
It's   not   in   the   way   you've been treating my friends
It's   not   in   the   way   that you'll stay till the end
It's   not   in   the   way   you look or the things that you say that you do

Hold the line
Love isn't always on time

It's   not   in   the   words that you told me
It's   not   in   the   way you say you're mine
It's   not   in   the   way that you came back to me
It's   not   in   the   way that your love set me free
It's   not   in   the   way you look or the things that you say that you do

Hold the line
Love isn't always on time

It's   not   in   the   words that you told me
It's   not   in   the   way you say you're mine
It's   not   in   the   way that you came back to me
It's   not   in   the   way that your love set me free
It's   not   in   the   way you look or the things that you say that you do

Hold the line
Love isn't always on time

It's not in the way that you hold me
It's not in the way that you make me feel
You see
It's all about the way you do the things you do
The way you do it
You've got to hold it
Hold it

Hold the line
Love isn't always on time




                                                                                487
Wyclef Jean - 911

   1 + 2 + 3 + 4 +   1 + 2 + 3 + 4 +   1 + 2 + 3 + 4 +   1 + 2 + 3 + 4 +
e|----/7-----------|-----------------|----/7-----------|-----------------|
B|------10-8-7-8---|-----------------|------10-8-7-8---|---------------3-|
G|---------------9-|-------8---------|---------------9-|-------4-----4---|
D|-----------------|-----9-----------|-----------------|-----5-----4-----|
A|-----------------|---9-------------|-0---------------|---5-----2-------|
E|-0---------------|-7---------------|-----------------|-3---------------|

   1 + 2 + 3 + 4 +    1 + 2 + 3 + 4 +   1 + 2 + 3 + 4 +    1 + 2 + 3 + 4 +
e|----10/-8---------|-----------------|----10/-8---------|-----------------|
B|----12/10-8-7-8---|-----------------|----12/10-8-7-8---|--------------3--|
G|----------------9-|-------8---------|----------------9-|-------4-----4---|
D|------------------|-----9-----------|------------------|-----5-----4-----|
A|------------------|---9-------------|-0----------------|---5-----2-------|
E|-0----------------|-7---------------|------------------|-3---------------|




                                                                               488
Misc

     Cette section contient les tablatures provenant des fichiers contenus
dans le répertoire « Misc ».




                                                                             489
Martin Bisson - Petit Accompagnement

Rythme: (ce sont des doubles croches)
  ________       ________       ________      ________
 |__|__|__|     |__|__|__|     |__|__|__|    |__|__|__|
 | | | |        | | | |        | | | |       | | | |
 | | | |        | | | |        | | | |       | | | |
/ / / /       / / / /        / / / /        / / / /
      ^--Accent      ^--Accent      ^--Accent     ^--Accent


Rythme de base (chaque accord pour un temps):
Em      Em      Em      D

Variante 1:
Em      Em      Am      Am
C       C       D (Dsus4 D)

Variante 2:
G       C       Am       B7
Em      C       Am       D (Dsus4 D)




                                                              490
??? - Haiti Chérie

      Am         DmG        E7         G        C
e|--0----5-----1----5-----0----------3----3-----0--|
B|--3----5-----3----6-----3----7-----0----3-----1--|
G|--2-ou-5-----2-ou-7-----1-ou-9-----0-ou-4-----0--|
D|--0----7-----0----7-----0----8-----0----5-----2--|
A|-------7----------5-----2----9-----2----5-----3--|
E|-------5----------------0----------3----3--------|



Intro:

     Am                        Dm           E7
||        |   |       |   ||        |   |        |        ||

     Am                        Dm           E7       Am
||        |   |       |   ||        |   |        |        ||



Couplet :

     Am
||        |   |       |   ||        |   |        |        ||

     G                         E7
||        |   |       |   ||        |   |        |        ||

     Am
||        |   |       |   ||        |   |        |        ||

     G                         E7
||        |   |       |   ||        |   |        |        ||


Le bout "Haiti Chewie":

     Am                        Dm           E7
||        |   |       |   ||        |   |        |        ||

     Am           C            Dm           E7
||        |   |       |   ||        |   |        |        ||

     Am           C            Dm           E7
||        |   |       |   ||        |   |        |        ||

     Am           C            Dm           E7
||        |   |       |   ||        |   |        |        ||



Ensuite encore couplet,
Ensuite encore refrain, plus un autre:

     Am           C            Dm           E7
||        |   |       |   ||        |   |        |        ||



                                                               491
Ensuite:
                                mais non mais non mais non mais non mais non
     Am                    E7
||        |   |   |   ||        |   |        |   ||


Et ensuite, tu répètes

     Am                    Dm           E7
||        |   |   |   ||        |   |        |   ||

Jusqu'à la fin...




                                                                               492
Blues - Riffs

Riff 1:
   A
   1    + 2  + 3   + 4   +   1   + 2   + 3   + 4   +
e|-------------------------|-------------------------|
B|-------------------------|-------------------------|
G|-------------------------|-------------------------|
D|-7-----7---5-7---5-------|-------------------------|
A|-------------------7-----|-5-----------------------|
E|-------------------------|-------5---5-8-----5-----|



Riff 2:
   A
   1    + 2  + 3   + 4   +
e|-------------------------|
B|-------------------------|
G|-------------------------|
D|-2---2-4---4-2---2-4---4-|
A|-0---0-0---0-0---0-0---0-|
E|-------------------------|



Riff 3:
   A
   1    + 2  + 3   + 4   +
e|-------------------------|
B|-------------------------|
G|-------------------------|
D|-2---2-4---4-5---5-4---4-|
A|-0---0-0---0-0---0-0---0-|
E|-------------------------|



Riff 4:
   A
   1    + 2  + 3   + 4   +
e|-------------------------|
B|-------------------------|
G|-------------------------|
D|-2---2-4---4-5---5-4-5-4-|
A|-0---0-0---0-0---0-0-0-0-|
E|-------------------------|



Riff 5:
   A
   1    + 2  + 3   + 4   +
e|-------------------------|
B|-------------------------|
G|-------------------------|
D|-2---2-4---4-2---------2-|
A|-0---0-0---0-0---0h3h4---|
E|-------------------------|


                                                         493
======================================================================

Turn around 1:
   E
   1   + 2   + 3   + 4   +   1   + 2   + 3   + 4   +
e|-----0-----0-----0-------|-------2---------2-2---2-|
B|---3-----2-----1---------|-------0---------0-0---0-|
G|/4-----3-----2-----1~~~~-|-------2---------2-2---2-|
D|-------------------trille|-------1---------1-1---1-|
A|-------------------------|-0-1-2-2---------2-2---2-|
E|-------------------------|-------------------------|



Turn around 2:
   E
   1   + 2   + 3   + 4   +   1   + 2   + 3   + 4   +
e|-----0-----0-------------|-2---2-2---2-----2-2---2-|
B|---2-----1---------------|-0---0-0---0-----0-0---0-|
G|/3-----2-----1~~~~-------|-2---2-2---2-----2-2---2-|
D|-------------trille------|-1---1-1---1-----1-1---1-|
A|-------------------0-1-2-|-2---2-2---2-----2-2---2-|
E|-------------------------|-------------------------|



Turn around 3:
   E
   1   + 2   + 3   + 4   +   1   + 2   + 3   + 4   +
e|---0-----0-----0---------|-------2-----------------|
B|-3---3-2---2-1---1-0-----|-------0-----------------|
G|-------------------------|-------2-----------------|
D|-------------------------|-------1-----------------|
A|-------------------------|-0-1-2-2-----------------|
E|-------------------------|-------------------------|



Turn around 4:
   E
   1   + 2   + 3   + 4   +
e|--------------------------|
B|---9-----8-----7---5------|
G|--------------------------|
D|/9---9-8---8-7---7-6------|
A|--------------------------|
E|--------------------------|




                                                                         494
495

				
DOCUMENT INFO
Shared By:
Categories:
Tags:
Stats:
views:23
posted:10/24/2012
language:French
pages:503