The Corrs - Remember

Document Sample
The Corrs - Remember Powered By Docstoc
					REMEMBER (Music & Lyrics: The Corrs)
-------------------------------------------------------------------------
------
---


Intro / Verse / Pre-chorus / Chorus (Acoustic Guitar):

       Am    Dadd9      F7M        G6   C         G   A#/C7   F/A   Dm
Em7

e|---0---|---0---|---0---|---0---|---0---|---3---|---3---|---1---|---1---
|---0-
--|
B|---1---|---3---|---1---|---0---|---1---|---3---|---1---|---1---|---3---
|---3-
--|
G|---2---|---2---|---2---|---0---|---0---|---4---|---3---|---2---|---2---
|---0-
--|
D|---2---|---0---|---3---|---0---|---2---|---5---|-------|-------|---0---
|---2-
--|
A|---0---|-------|---3---|---2---|---3---|---5---|---1---|---0---|-------
|---2-
--|
E|-------|-------|---1---|---3---|-------|---3---|-------|-------|-------
|---0-
--|


Bridge (Electric Guitar):

       F/A     A#        C

e|--(0)--|--(1)--|--(3)--|
B|--(1)--|--(3)--|--(5)--|
G|---2---|---3---|---5---|
D|---2---|---3---|---5---|
A|---0---|---1---|---3---|
E|-------|-------|-------|


INTRO: Am, Dadd9, G6, F7M, C, F7M, G6


VERSE 1:

Am                   Dadd9         G6       F7M
     I see you in my memory

C                 F7M         G6
    As vivid as today
Am                       Dadd9    G6     F7M
     And I wonder do you see me


C                         F7M     G6
    In that same familiar way


PRE CHORUS 1:

A#/C7       F/A
Oooh        Oooh

  Dm
Another place another time

      Em7
We'll meet again and you'll be mine

A#/C7       F/A
Oooh        Oooh

      F                              G
Cause nothing can compare to you and I


CHORUS: same chords as intro and verse


BRIDGE:

F/A     A#       C
Do you remember?

F/A     A#       C
Really remember?

(...)

CHORUS: same chords as the other chorus but with a capo on the 2nd fret


        - Dinda -

				
DOCUMENT INFO
Shared By:
Categories:
Tags:
Stats:
views:0
posted:4/25/2012
language:
pages:2
Andi Widiyanto Andi Widiyanto CEO http://storiesme.com
About HAnya seorang anak biasa yang mencoba untuk menjadi orang