coldplay

Document Sample
coldplay Powered By Docstoc
					Trouble

Intro: G Em Bm
Verses : G Em Bm F Am
Chorus: A Em7 A Em7

Oh no, I see,
A spider web, it's tangled up with me,
And I lost my head,
The thought of all the stupid things I said,
Oh no what's this?
A spider web, and I'm caught in the middle,
Oh I turned to run,
The thought of all the stupid things I've done,

And oh, I never meant to cause you trouble,
And oh, and I never meant to do you wrong,
And oh, well if I ever caused you trouble,
Oh no, I never meant to do you harm.

Oh no I see,
A spider web and it's me in the middle,
So I twist and turn,
Here am I in my little bubble,

Singing out, oh I never meant to cause you trouble,
Oh, I never meant to do you wrong,
Oh, well if I ever caused you trouble,
Oh no, I never meant to do you harm.

They spun a web for me,
They spun a web for me,
They spun a web for me.
    (These were worked out by a fan and are not the official version so there may be
                                       mistakes)
                                    Trouble
Trouble - Coldplay tabbed by Jamie Fleming Simpson jamie.simpson64@hotmail.com
    Obviously this song is mostly on piano so I've tabbed most of the piano,
chords and guitar. I have tabbed most of the song but if there is any bits you
      think I've missed just email. This is the intro on piano for guitar.
G    Em     Bm        G        Em Bm
 |2-3-2--3--2-3-2--0--2-3-2--2------2--|5-3-2--3--2-3-2--0--2-3-2--2------2--|
 |-----3-3-------3-0-------3-3------3--|-----3-3-------3-0-------3-3------3--|
 |-------0---------0---------4---------|-------0---------0---------4---------|
 |-------0---------2---------4---------|-------0---------2---------4---------|
 |-------2---------2---------2---------|-------2---------2---------2---------|
 |-------3---------0-------------------|-------3---------0-------------------|

G   Em     Bm        G        Em Bm
 |-------------------------------------|-------------------------------------|
 |---------3----------3----------------|---------3---------3-----------------|
 |----------4----------4---------------|----------4---------4----------------|
 |--------4----------4-----------------|--------4---------4------------------|
 |-------------------------------------|-------------------------------------|
 |-------------------------------------|-------------------------------------|
The chords for the verse.
G   Em     Bm        F        Am
|-------3---------0---------2---------|-------1---------0--------|
|-------3---------0---------3---------|-------1---------1--------|
|-------0---------0---------4---------|-------2---------2--------|
|-------0---------2---------4---------|-------3---------2--------|
|-------2---------2---------2---------|-------3---------0--------|
|-------3---------0-------------------|-------1------------------|

The chords for the chorus.
A     Em7        A     Em7
|--0---------0-----------|-0---------0-----------|
|--2---------3-3--3--3---|-2---------3-3--3--3---|
|--2---------0--0--0--0--|-2---------0--0--0--0--|
|--2---------2---2--2--2-|-2---------2---2--2--2-|
|--0---------2-----------|-0---------2-----------|
|------------0-----------|-----------0-----------|

Guitar Ebow or Slide with heavy reverb
A      Em7       A      Em7
|------------------------|-----------------------|
|8/14-----14\12----------|8/14-----14\12---------|
|------------------------|-----------------------|
|------------------------|-----------------------|
|------------------------|-----------------------|
|------------------------|-----------------------|
Verse second time round
G   Em     Bm        F        Am
|-------3---------0---------2----------|-------1---------0--------|
|-------3---------0---------3----------|-------1---------1--------|
|-------0---------0---------4-11\9\7\2-|-------2---------2--------|
|-------0---------2---------4----------|-------3---------2--------|
|-------2---------2---------2----------|-------3---------0--------|
|-------3---------0--------------------|-------1------------------|
G   Em     Bm        F        Am
|-------3---------0---------2----------|-------1---------0--------|
|-------3---------0---------3----------|-------1---------1--------|
|-------0---------0---------4-11\9\7\14|-------2---------2--------|
|-------0---------2---------4----------|-------3---------2--------|
|-------2---------2---------2----------|-------3---------0--------|
|-------3---------0--------------------|-------1------------------|
Chorus x1 Instrumental
G   Em     Bm        G        Em Bm
|-------3---------0---------2---------|-------3---------0---------2---------|
|-------3---------0---------3----3-5--|-------3---------0---------3----3-5--|
|-------0---------0---------4---------|-------0---------0---------4---------|
|-------0---------2---------4---------|-------0---------2---------4---------|
|-------2---------2---------2---------|-------2---------2---------2---------|
|-------3---------0-------------------|-------3---------0-------------------|
G   Em     Bm        G        Em Bm
|-------10----------------------------|-------10----------------------------|
|-------12----------------------------|-------12----------------------------|
|-------12------------------5\--------|-------12-----------------5\---------|
|-------12------------------5\--------|-------12-----------------5\---------|
|---------------------------7\--------|--------------------------7\---------|
|-------------------------------------|-------------------------------------|

The chords for the Middle 8
Em F#m G F#m Em F#m G F#m Em F#m G F#m Em
|-0---2---3---2-|-0---2---3---2-|-0---2---3---2-|-0-------------|
|-0---2---3---2-|-0---2---3---2-|-0---2---3---2-|-0-------------|
|-0---2---0---2-|-0---2---0---2-|-0---2---0---2-|-0-------------|
|-2---4---0---4-|-2---4---0---4-|-2---4---0---4-|-2-2--2-2-2-2--|
|-2---4---2---4-|-2---4---2---4-|-2---4---2---4-|-2-------------|
|-0---2---3---2-|-0---2---3---2-|-0---2---3---2-|-0-------------|
Instrumental x1 end

tabbed by Jamie Fleming Simpson jamie.simpson64@hotmail.com

				
DOCUMENT INFO
Shared By:
Categories:
Tags:
Stats:
views:5
posted:10/26/2011
language:English
pages:3